Song name
# A B C D E F G H I J K L M N O P Q R S T U V W X Y Z

The Beautiful Girls - Everything Does tab

----------------------------------------------------------------------------
	           EVERYTHING DOES - The Beautiful Girls
----------------------------------------------------------------------------
Tabbed by: jvcardona
Email: jvcardona@yahoo.es

Tuning: standard

Intro/Chorus:

 (Bb)          (C)
e|----------------------------------|
B|----------------------------------|
G|----------------------------------|
D|--------3--5----------------------|
A|1--3/5--------3---------3--1------|
E|-----------------3--33--------3--1|

Verse/Solo:

 (Bb)          (C)
e|----------------------------------|
B|----------------------------------|
G|--3-x----3-x----5-x----5-x--------|
D|--3-x----3-x----5-x----5-x--------|
A|1------1------3------3------------|
E|----------------------------------|


| /  slide up
| x  Mute note
============================================================================
Tap to rate this tab
# A B C D E F G H I J K L M N O P Q R S T U V W X Y Z