Song name
# A B C D E F G H I J K L M N O P Q R S T U V W X Y Z

The Beautiful Girls - Spanish Town tab

this is the first tab ive ever submitted its based on the other version above
i just didnt like the way he/she did it so heres mine (apparently its 100% correct it 
sound right)

Part A
|-------------------------------------------|
|--------9--------5-------------------------|
|--------9--------6--------6--------8-------|   \/ ()
|--------9--------6--------7--------9-------|   /\ ()
|----0-7-7----0-4-4--------7--------9-------|
|----------------------0-5-5----0-7-7-------|
         got no money left, threw it all
      away.
         went down to mexico, tried to escape
      the rains.
         but everytime i see you, i still feel
      the same.
         been down so long, somethings just
      never change.

Part B
|-------5-5-x-5-5-5-x-x-7-7-x-7-7-7-x-x-----7-7-5-5-5-5-|
|-------5-5-x-5-5-5-x-x-7-7-x-7-7-7-x-x-9-9-7-7-5-5-5-5-|
|-------6-6-x-6-6-6-x-x-8-8-x-8-8-8-x-x-9-9-8-8-6-6-6-6-|
|-------7-7-x-7-7-7-x-x-9-9-x-9-9-9-x-x-9-9-9-9-7-7-7-7-|
|-------7-7-x-7-7-7-x-x-9-9-x-9-9-9-x-x-7-7-9-9-7-7-7-7-|
|-------5-5-x-5-5-5-x-x-7-7-x-7-7-7-x-x-----7-7-5-5-5-5-|

        but one day, i know, i will    be back again.

|-------5-5-x-5-5-5-x-x-7-7-x-7-7-7-x-x-----x-----x----------------------|
|-------5-5-x-5-5-5-x-x-7-7-x-7-7-7-x-x-9-9-x-9-9-x----------------------|
|-------6-6-x-6-6-6-x-x-8-8-x-8-8-8-x-x-9-9-x-9-9-x----------------------|
|-------7-7-x-7-7-7-x-x-9-9-x-9-9-9-x-x-9-9-x-9-9-x-----9-11-9---9-------|
|-------7-7-x-7-7-7-x-x-9-9-x-9-9-9-x-x-7-7-x-7-7-x-9/11-------11-11-9\7-|
|-------5-5-x-5-5-5-x-x-7-7-x-7-7-7-x-x-----x-----x----------------------|

        i'll be back in spanish town my friend.

Part A
|-------------------------------------------|
|----------9--------5-----------------------|
|----------9--------6--------6--------8-----|
|----------9--------6--------7--------9-----|
|------0-7-7----0-4-4--------7--------9-----|
|------------------------0-5-5----0-7-7-----|

       remember red church street, and drinking wine
     all day?
       and how we used to meet down prison oval
     way?
       the days grow longer, longer we're
     away
       from that place that lonely music
     plays.

Part B
|-------5-5-x-5-5-5-x-x-7-7-x-7-7-7-x-x-----7-7-5-5-5-5-|
|-------5-5-x-5-5-5-x-x-7-7-x-7-7-7-x-x-9-9-7-7-5-5-5-5-|
|-------6-6-x-6-6-6-x-x-8-8-x-8-8-8-x-x-9-9-8-8-6-6-6-6-|
|-------7-7-x-7-7-7-x-x-9-9-x-9-9-9-x-x-9-9-9-9-7-7-7-7-|
|-------7-7-x-7-7-7-x-x-9-9-x-9-9-9-x-x-7-7-9-9-7-7-7-7-|
|-------5-5-x-5-5-5-x-x-7-7-x-7-7-7-x-x-----7-7-5-5-5-5-|

        but one day, i know, i will    be back again.

|-------5-5-x-5-5-5-x-x-7-7-x-7-7-7-x-x-----x-----x----------------------|
|-------5-5-x-5-5-5-x-x-7-7-x-7-7-7-x-x-9-9-x-9-9-x----------------------|
|-------6-6-x-6-6-6-x-x-8-8-x-8-8-8-x-x-9-9-x-9-9-x----------------------|
|-------7-7-x-7-7-7-x-x-9-9-x-9-9-9-x-x-9-9-x-9-9-x-----9-11-9---9-------|
|-------7-7-x-7-7-7-x-x-9-9-x-9-9-9-x-x-7-7-x-7-7-x-9/11-------11-11-9\7-|
|-------5-5-x-5-5-5-x-x-7-7-x-7-7-7-x-x-----x-----x----------------------|

        i'll be back in spanish town my friend.

Part A
|-------------------------------------------|
|--------9--------5-------------------------|
|--------9--------6--------6--------8-------|   \/ ()
|--------9--------6--------7--------9-------|   /\ ()
|----0-7-7----0-4-4--------7--------9-------|
|----------------------0-5-5----0-7-7-------|

Part B
|-------5-5-x-5-5-5-x-x-7-7-x-7-7-7-x-x-----7-7-5-5-5-5-|
|-------5-5-x-5-5-5-x-x-7-7-x-7-7-7-x-x-9-9-7-7-5-5-5-5-|
|-------6-6-x-6-6-6-x-x-8-8-x-8-8-8-x-x-9-9-8-8-6-6-6-6-|
|-------7-7-x-7-7-7-x-x-9-9-x-9-9-9-x-x-9-9-9-9-7-7-7-7-|
|-------7-7-x-7-7-7-x-x-9-9-x-9-9-9-x-x-7-7-9-9-7-7-7-7-|
|-------5-5-x-5-5-5-x-x-7-7-x-7-7-7-x-x-----7-7-5-5-5-5-|

        but one day, i know, i will    be back again.

        i'll be back in spanish town my friend.

        i'll be back in spanish town my friend.

        etc...

finish on
|---|
|-9-|
|-9-|
|-9-|
|-7-|
|---|

If theres anything you want to ask me, dont bother just learn the song
love the band and be on your way    |||   THANK YOU   |||
Tap to rate this tab
 
# A B C D E F G H I J K L M N O P Q R S T U V W X Y Z