Song name
# A B C D E F G H I J K L M N O P Q R S T U V W X Y Z

The Beautiful Mistake - Silence tab

Help us improve GuitareTab! Take a short survey!
-----------------------------------------------------------------------------
			     Silence - The Beautiful Mistake
-----------------------------------------------------------------------------
Tabbed by: N/A
Email: N/A

Tuning: Drop D

Notes: I noticed that there wasn't a tab of this song on here and there should be. I
this tab on another site, but, unfortunately, that site was taken down due to "copyright
claims by the FCC or whatever the hell that BS is. The point is that they're trying to
down guitar tab sites, sites that make favorite songs available to those who cannot read
music. Since Ultimate-Guitar is such an awesome place to share one another's
of songs, I decided to retab this song here. I take absolutely no credit for figuring 
song out
kudos to the person that actually did. I hope you enjoy this awesome song and please 
online guitar tablature.


I'm only tabbing out the Lead Guitar, but its the more interesting bit.

Light Distortion


Intro Part 1 (x4)

e|--------------------------------------------------------------------------|
B|--------------------------------------------------------------------------|
G|-----4h5p4-------------5--55--------4h5p4-----4-2-------------------------|
D|---5-------5-4--2--22--5--55------5-------5-4-----4-5---------------------|
A|-7--------------2--22--3--33----7-----------------------------------------|
D|----------------2--22--0--00----------------------------------------------|
PM                   ..     .

Intro Part 2 (x2)

e|---------3--------------------10------------------------------------------|
B|------------------------8-7h8----8-7h8------------------------------------|
G|---0-4h5---5-4-5------9---------------------------------------------------|
D|-2------------------------------------------------------------------------|
A|--------------------7-----------------------------------------------------|
D|--------------------------------------------------------------------------|

Verse (play 1 time through then stop at the X the second time around)

e|---------3-----------------10-----------------3-----------------10---15-14|
B|---------------------8-7h8----8-10-8----------------X-----8-7h8----8------|
G|---5p4h5---5-4-5---9--------------------5p4h5---5-4-5---9-----------------|
D|-2------------------------------------------------------------------------|
A|-----------------7--------------------2---------------7-------------------|
D|--------------------------------------------------------------------------|

Chorus (x8 tried to tab the rhythym as best I could)
The first time has some effect with it.

e|--------------------------------------------------------------------------|
B|--------------------------------------------------------------------------|
G|-----55-55-5--------------------------------------------------------------|
D|-----55-55-5--0-00--00-0--------------------------------------------------|
A|-----33-33-3--0-00--00-0--------------------------------------------------|
D|--------------0-00--00-0--------------------------------------------------|
PM     .. .  .    .   ..

Interlude/Instrumental (don't know it and wasn't on the original; if u figure it out
post it!)

Break (x1)

e|--------------------------------------------------------------------------|
B|--------------------------------------------------------------------------|
G|-----55555555x------------------------------------------------------------|
D|-----55555555x------------------------------------------------------------|
A|-----33333333x------------------------------------------------------------|
D|--------------------------------------------------------------------------|

Chorus (x4)

Lead Chorus (maybe not exact but sounds good enough I think)

e|-----12--8--10------------------------------------------------------------|
B|----------------8--10-----------------------------------------------------|
G|-----------------------7--9--5~-555~-55~----------------------------------|
D|--------------------------------------------------------------------------|
A|--------------------------------------------------------------------------|
D|--------------------------------------------------------------------------|

e|-----12--8--10------------------------------------------------------------|
B|----------------8--10-----------------------------------------------------|
G|-----------------------7--9--5~-55/9~-99~---------------------------------|
D|--------------------------------------------------------------------------|
A|--------------------------------------------------------------------------|
D|--------------------------------------------------------------------------|

e|-----12--8--10------------------------------------------------------------|
B|----------------8--10-----------------------------------------------------|
G|-----------------------7--9--5~-555~-55~----------------------------------|
D|--------------------------------------------------------------------------|
A|--------------------------------------------------------------------------|
D|--------------------------------------------------------------------------|

e|-----12--8--10---------------15--14---------------------------------------|
B|----------------8--10-----------------------------------------------------|
G|-----------------------7--9-----------------------------------------------|
D|--------------------------------------------------------------------------|
A|--------------------------------------------------------------------------|
D|--------------------------------------------------------------------------|

Breakdown (x4)

e|----------------------------------12--10--------12--10--------------------|
B|--------5--3--------5--3----7--8----------7--8----------------------------|
G|--------------------------------------------------------------------------|
D|-----5-----------5--------------------------------------------------------|
A|--7-----------7-----------------------------------------------------------|
D|--------------------------------------------------------------------------|

Intro Part 1 (x4)

Ending (x1)

e|--------------------------------------------------------------------------|
B|--------------------------------------------------------------------------|
G|--------------------------------------------------------------------------|
D|-----4-4/5-2~-------------------------------------------------------------|
A|--------------------------------------------------------------------------|
D|--------------------------------------------------------------------------|


| /  slide up
| \  slide down
| h  hammer-on
| p  pull-off
| ~  vibrato
| +  harmonic
| x  Mute note
=============================================================================
Related for Silence tab