Song name
# A B C D E F G H I J K L M N O P Q R S T U V W X Y Z

The Beaver Brown Band - Season In Hell tab

ok guys this is the tab for season in hell from the movie eddie and the cruisers.
This is my first tab so im sorry if some of it is wrong. Listen to the song for
the beat. Have fun playing season in hell.

e-|-12--10---12-----10----------------------------------------------------|
b-|---10-------10-10--10---13-12-13-13--13-12-13-13--12-13--13-13-12------|
g-|---------------------9--------------------------12---------------12----|
d-|-----------------------------------------------------------------------|
a-|-----------------------------------------------------------------------|
e-|-----------------------------------------------------------------------|

e-|-12-----10---12-----10-------------------------------------------------|
b-|---10-10-------10-10--10---13-12-13-13--13-12-13-13--12-13--13-13-12---|
g-|------------------------9--------------------------12---------------12-|
d-|-----------------------------------------------------------------------|
a-|-----------------------------------------------------------------------|
e-|-----------------------------------------------------------------------|

Please rate this tab.
thanks
Tap to rate this tab
# A B C D E F G H I J K L M N O P Q R S T U V W X Y Z