Song name
# A B C D E F G H I J K L M N O P Q R S T U V W X Y Z

The Bell Notes - Ive Had It tab

I've Had It:The Bellnotes.
#6 on BB Hot 100 on TIME Records
in 1959.

INTRO:RIFF PT. #1.

---0-0-0-0-------------------------------------|
---5-5-5-5---0-0-0-0----0-0-0-0---0-0-0-0------|
-------------4-4-4-4----3-3-3-3---2-2-2-2------|
-----------------------------------------------|
-----------------------------------------------|
-----------------------------------------------|

RIFF PT.#2
E chord //
----------------------------------------------|
----------------------------------------------|
----------------------------------------------|
----------------------------------------------|
-E//-------E//-------E//-----E//--------------|
----3-3------3-3-------3-3-----3-3------------|

CHORUS:
E
La,la,lah,lah..la,la,la,lah..
A
La,la,lah,lah..la,la,la,lah..
B              A
La,la,lah,lah..la,la,lah,lah.
E
La,la,la,la,la..lah,lah.  (RIFF PT.#2.)

#1.
E
When I saw her on the corner,
       A
then I knew that I was a goner,
     B       A                 E
I've had it, we...ll, I've had it. (RIFF PT.#2.)

#2.
E
When you say that I shouldn't phone,
A
then I do and there's nobody home.
     B       A                 E
I've had it, we...ll, I've had it.(RIFF PT.#2.)

CHORUS:
E
La,la,lah,lah..la,la,la,lah..
A
La,la,lah,lah..la,la,la,lah..
B              A
La,la,lah,lah..la,la,lah,lah.
E
La,la,la,la,la..lah,lah.  (RIFF PT.#2.)

(INTERLUDE:) E A B

CHORUS:
E
La,la,lah,lah..la,la,la,lah..
A
La,la,lah,lah..la,la,la,lah..
B              A
La,la,lah,lah..la,la,lah,lah.
E
La,la,la,la,la..lah,lah.  (RIFF PT.#2.)

#3.
E
When you say that you'll keep a date,
A
then you show up two hours late.
     B       A                 E
I've had it, we...ll, I've had it. (RIFF PT.#2.)

#4.
E
When you say that you love me, honey,
A
when you really need my money,
     B       A                E
I've had it..we..ll, I've had it. (RIFF PT.#2.)

CHORUS:
E
La,la,lah,lah..la,la,la,lah..
A
La,la,lah,lah..la,la,la,lah..
B              A
La,la,lah,lah..la,la,lah,lah.
E
La,la,la,la,la..lah,lah.

RIFF:#1.

---0-0-0-0-------------------------------------|
---5-5-5-5---0-0-0-0----0-0-0-0---0-0-0-0------|
-------------4-4-4-4----3-3-3-3---2-2-2-2------|
-----------------------------------------------|
-----------------------------------------------|
-----------------------------------------------|

RIFF PT.#2
E chord //
----------------------------------------------|
----------------------------------------------|
----------------------------------------------|
----------------------------------------------|
-E//-------E//-------E//-----E//--------------|
----3-3------3-3-------3-3-----3-3------------|

E   /   /
Cha cha cha.


A fifties smash from Kraziekhat.
Tap to rate this tab
 
# A B C D E F G H I J K L M N O P Q R S T U V W X Y Z