Song name
# A B C D E F G H I J K L M N O P Q R S T U V W X Y Z

The Benjy Davis Project - Do It With The Lights On tab

Verse 1
E|-------------------------------------|
B|--4------2----------2-------4---4----|
G|--4------3------1---3-------------4--|
D|--6------4------2---4-----6----6-6---|
A|--6------4------2---4----6-6---------|
E|--4------2----------2---4------------|

E|-------------------------------------|
B|--4------2----------2-------4---4----|
G|--4------3------1---3----------------|
D|--6------4------2---4-----6----6-----|
A|--6------4------2---4----6-6---------|
E|--4------2----------2---4------------|

E|-------------------------|
B|-----0-----2------4---4--|
G|-------------------------|
D|----2-----4-----6----6---|
A|---2-----4-----6-6-------|
E|--0-----2-----4----------|

E|------------------------------------------|
B|-----0-----2------4---4----------------2--|
G|-----------------------------1--1------3--|
D|----2-----4-----6----6--------2--------4--|
A|---2-----4-----6-6----------2----------4--|
E|--0-----2-----4------------0---0-------2--|

Chorus
E|--------x---------x------|     --3----5-------|
B|--4--4--x-2-0--0--x-2-2--|     --3----3----3--|
G|--4--4--x-3-1--1--x-3-3--|Play --2----2----2--|
D|--4--4--x-4-2--2--x-4-4--| 4x  ------------0--|
A|--2--2--x-4-2--2--x-4-4--|     ------------0--|
E|--------x-2-------x-2-2--|     ---------------|

Verse 2
E|-------------------------------| -----------------------------------|
B|-------------------------------| -----------------------------------|
G|--4-4----2-2--9-------4--------| --4-------2-------9-------4--------|Play
D|--4-4----2-2--9-strum-4-strum--| --4-strum-2-strum-9-strum-4-strum--| 3x
A|--2-2---------7-------2--------| --2---------------7-------2--------|
E|-------------------------------| -----------------------------------|

E|---------------------------------------------------------------|
B|---------------------------------------------------------------|
G|---------2------4-------------2------4--4-4-4-4-4-4-4-4-4-4-4--|
D|--5------2------4------5------2------4--4-4-4-4-4-4-4-4-4-4-4--|
A|--5-------------2------5-------------2--2-2-2-2-2-2-2-2-2-2-2--|
E|--3--------------------3---------------------------------------|

Then it goes back into a variation of Verse 1 before the Chorus. Theres a bunch of 
electric fills in the song that I'm going to try and tab later after I figure them out
Tap to rate this tab
# A B C D E F G H I J K L M N O P Q R S T U V W X Y Z