Song name
# A B C D E F G H I J K L M N O P Q R S T U V W X Y Z

The Benjy Davis Project - Crimson Glow tab

Help us improve GuitareTab! Take a short survey!
Tabbed by: Youngboy334
Email:

Tuning: Standard E-A-D-G-B-e

This is the intro and basic riff of the whole song
e|----1^--1------1-1^-1-----1-1^---0--0-3^-0--------------------------------|
B|----3^--3------3-3^-3-----1-1^---1--1-1^-1--------------------------------|
G|--2-2^--3------3-3^-3-----2-2^---0--0-0^-0--------------------------------|
D|-0--0^--3------3-3^-3-----3-3^---2--2-------------------------------------|
A|--------1------1-1^-1-----3-3^---3--3-------------------------------------|
E|--------------------------------------------------------------------------|

Solo (Played twice in song)
e|-----------------------------------------10--10p13------------------------|
B|------------------------------------10h12-----------13-10--10h13p10-------|
G|--12b--12--10-------10h12p10---10h12--------------------------------------|
D|--------------10h12-------------------------------------------------------|
A|--------------------------------------------------------------------------|
E|--------------------------------------------------------------------------|

e|--------------------------------------------------------------------------|
B|--------------------------------------------------------------------------|
G|-12b-10-10h12-10--------10-12b--------------------------------------------|
D|------------------10h12---------------------------------------------------|
A|--------------------------------------------------------------------------|
E|--------------------------------------------------------------------------|
Link for Band: http://www.bdpmusic.com/main/
Related for Crimson Glow tab