Song name
# A B C D E F G H I J K L M N O P Q R S T U V W X Y Z

The Besnard Lakes - Disaster tab

Disaster tabs :)

Standard Tunning

Intro:
E|------------------------------------------------------------------------|
B|------------------------------------------------------------------------|
G|------------------------------------------------------------------------|
D|------------------------------------------------------------------------|
A|---11---11---11---11---11---11---11---11---7---7---7---7---9---9---9---9|
E|9----9----9----9----0----0----0----0----5---5---5---5---0---0---0---0---|

Repeat through verse 

Chorus

E|------------------|
B|------------------|
G|------------------|
D|------------------|
A|11-11-11-11-11-11-|
E|9--9--9--9--9--9--|
  Pick up the pieces      


E|---------------------|
B|---------------------|
G|---------------------|
D|---------------------|
A|11-11-11-11-11-11-9--|
E|0--0--0--0--0--0--7--|

  and make me understand 


E|-------------------------|
B|-------------------------|
G|-------------------------|
D|-------------------------|
A|9--9--9--9--7--7--7--9--9|
E|7--7--7--7--5--5--5--7--7|

  Why we can't move any faster 


E|------------------|
B|------------------|
G|------------------|
D|------------------|
A|11-11-11-11-11-11-|
E|9--9--9--9--9--9--|

  Losing all demand,



E|---------------------|
B|---------------------|
G|---------------------|
D|---------------------|
A|11-11-11-11-11-11-9--|
E|0--0--0--0--0--0--7--|

 I've broken all my plans 




E|-------------------------|
B|-------------------------|
G|-------------------------|
D|-------------------------|
A|9--9--9--9--7--7--7--9--9|
E|7--7--7--7--5--5--5--7--7|

 This year was a disaster 



Verse 2: Same as Intro and Verse 1

Back to chorus

What you don't know will only make this worse x3 (piano, but i play intro over it)


Back to chorus 



:) 

Tap to rate this tab
# A B C D E F G H I J K L M N O P Q R S T U V W X Y Z