Song name
# A B C D E F G H I J K L M N O P Q R S T U V W X Y Z

The Bewitched Hands - Work chords

-------------------------------------------------------------------------------
                             WORK - The Bewitched Hands
-------------------------------------------------------------------------------

UG folks don't seem to know this excellent French pop-rock band, here's my favourite song of them:

http://thebewitchedhands.com/

Tabbed by: Zirroko
E-mail: Li44@free.fr

Tuning: EADGBe

Verse:

e|---------------------------------------------------------------------|
B|-8---8-7-8--7-8-10-8-7-5----5-3-5------------------------------------|
G|---------------------------------------------------------------------| Played during the verses
D|---------------------------------------------------------------------|
A|---------------------------------------------------------------------|
E|---------------------------------------------------------------------|

G                                 Em
Life is so cruel, my broken ..is out of my head

G                                 Em
Bis like a fool, my broken ..is out of my head.


Chorus:

Em
C       G       G       Em
Iím ..like a hero
C       G       G       Em
Iím walking with my balls
C       G       G       Em
I give the best of myself
C       G       G       
so trick me like a fool

Verse X 1
Chorus X 1

Break: 
(listen to the music to figure out the strumming. the tab part is played at the same time)

G       G G     G G     G G G/B 
Em      Em Em   Em Em   Em Em D 

e|-7-7-7-7-8--7-7-5----------------------------------------------------------|
B|-8-8-8-8-8--8-8-8----------------------------------------------------------|
G|-7-7-7-7-7--7-7-7----------------------------------------------------------|
D|---------------------------------------------------------------------------|
A|---------------------------------------------------------------------------|
E|---------------------------------------------------------------------------|

e|-3-3-3-3-5--3-2-3----------------------------------------------------------|
B|-5-5-5-5-5--5-5-5----------------------------------------------------------|
G|-4-4-4-4-4--4-4-4----------------------------------------------------------|
D|---------------------------------------------------------------------------|
A|---------------------------------------------------------------------------|
E|---------------------------------------------------------------------------|

(Whole break is twice this part)

Chorus X 4
Tap to rate this tab
 
# A B C D E F G H I J K L M N O P Q R S T U V W X Y Z