Song name
# A B C D E F G H I J K L M N O P Q R S T U V W X Y Z

The Big Cats - Dont Go tab

-------------------------------------------------------------------------------
                             DON'T GO - The Big Cats
-------------------------------------------------------------------------------
Tabbed by: 98angelblue
E-mail: brightyellowjacket@gmail.com

Tuning: EADGBe (standard)

Big Cats: http://thebigcatsmusic.com/

Okay so this is my first tab.  And it's totally original because I can't seem to 
find any other tabs anywhere.
So this is for three guitars: Lead (Jason White) and Rhythm (Burt Taggart).
It's really at the last chorus where it sounds like there's a third guitar so I 
just put that in, too.
Give suggestions if you see something that sounds wrong (probably the lead because I suck)

h- hammer on
\- slide down
/- slide up





VERSE 1

Rhythm:

e|----------------------------------------|
B|----------------------------------------|
G|----------------------------------------|
D|--5----------------------5--------------|   x2
A|--3-x15--7-5------2------3-x16----------|
E|---------5-3-x15--0-x17-----------------|


CHORUS 1

Rhythm:

e|----------------------------------------|
B|----------------------------------------|
G|--5------------2------------------------|
D|--5------2-----2-----3------------------|   x2
A|--3-x8---2-----0-x8--3------------------|
E|---------0-x8--------1-x8---------------|

Lead:

e|-----8--8--8--8----3-3--3-3-------------|
B|-----8--8--8--8----3-3--3-3-------------|
G|-----9--9--9--9----4-4--4-4-------------|
D|----10-10-10-10----5-5--5-5-------------|
A|----------------------------------------|
E|----------------------------------------|

e|----5-5--5-5----1-1--1-1----------------|
B|----5-5--5-5----1-1--1-1----------------|
G|----5-5--5-5----2-2--2-2----------------|
D|----7-7--7-7----3-3--3-3----------------| all x2
A|----------------------------------------|
E|----------------------------------------|

VERSE 2

Rhythm:

e|----------------------------------------|
B|----------------------------------------|
G|----------------------------------------|
D|--5----------------------5--------------|   x2
A|--3-x15--7-5------2------3-x16----------|
E|---------5-3-x15--0-x17-----------------|

Lead:

    (second half of verse)
e|----5------7------4------5----5-5\------|
B|---6------8------5------6-----6-6\------|
G|--5------7------4------5------5-5\------|
D|----------------------------------------|
A|----------------------------------------|
E|----------------------------------------|

CHORUS 2

Rhythm:

e|----------------------------------------|
B|----------------------------------------|
G|--5------------2------------------------|
D|--5------2-----2-----3------------------|   x4
A|--3-x8---2-----0-x8--3------------------|
E|---------0-x8--------1-x8---------------|

Lead:

e|--------8-----------3----------5-----------1-----|
B|----8---8-8-------3-3-3------5-5-5-------1-1-1---|
G|--------9---9-------4---5------5---5-------2---2-|
D|-10---10-------5---5-------7---7-------3---3-----|   x4
A|-------------------------------------------------|
E|-------------------------------------------------|

BRIDGE

Rhythm:

e|----------------------------------------|
B|----------------------------------------|
G|----------------------------------------|
D|----------------------------------------|   x4
A|-2-2-2-5-5-5-3-3-3-3-3-3----------------|
E|-0-0-0-3-3-3-1-1-1-1-1-1----------------|

Lead:

    (4th set of saying don't go)
e|----------------------------------------|
B|----------------------------------------|
G|----------------------------------------|
D|-----6---9--10--------------------------|
A|----7--10--8----------------------------|
E|----------------------------------------|

GUITAR SOLO

Rhythm:

e|----------------------------------------|
B|----------------------------------------|
G|-----------------2----------------------|
D|----5------2-----2-x8-------------------|   x6
A|----5-x16--2-x8--0----------------------|
E|----3------0----------------------------|

Lead:

e|------------------------------------------------------|
B|------------------------------------------------------|
G|--------------------------------------9-9-9\7-7-7--7\-|
D|---5-3-2----------3-2-------2-3-5-7-9-9-9-9\7-7-7--7\-|
A|---------5-3-5--------5-3-5---------------------------|
E|------------------------------------------------------|

e|------------------------------------------------------------|
B|------------------------------------------------------------|
G|----------------------------------------9-9-9/10-10-10--10\-|
D|---5-3-2----------3h2-------2-3-5-7-7-9-9-9-9/10-10-10--10\-| all x2
A|---------5-3-5--------5-3-5---------------------------------|
E|------------------------------------------------------------|

e|----------------5-----------------------|
B|----------------5-----------------------|
G|--12------9-----5-----------------------|
D|--12-x16--9-x8--7-x8--------------------|   x2
A|--10------7-----------------------------|
E|----------------------------------------|

CHORUS 3

Rhythm:

e|----------------------------------------|
B|----------------------------------------|
G|--5------------2------------------------|
D|--5------2-----2-----3------------------|   x3
A|--3-x8---2-----0-x8--3------------------|
E|---------0-x8--------1-x8---------------|

e|---------------------------------------------|
B|---------------------------------------------|
G|--5------------2-----------------------------|
D|--5------2-----2-----3-3--3-3--3-3--3-3--3-3-|
A|--3-x8---2-----0-x8--3-3--3-3--3-3--3-3--3-3-|
E|---------0-x8--------1-1--1-1--1-1--1-1--1-1-|

Lead 1:

e|-------8-8--8-8-8-7------------8------12-10-8---|
B|--8-----------------10-8---------10-8-----------|
G|-------------------------9----------------------|
D|------------------------------------------------|
A|------------------------------------------------|
E|------------------------------------------------|

e|-----15-10-------10-------------------15-15--15-15--15-15--15-15--15-15\-|
B|--13-------12-13----13-------13---15-------------------------------------|
G|-------------------------------------------------------------------------|
D|-------------------------------------------------------------------------|
A|-------------------------------------------------------------------------|
E|-------------------------------------------------------------------------|

Lead 2:

e|--8---------5------------|
B|--8---------5------------|
G|--9-x8-9----5-x8-10------|
D|-10----9-x8-7----10-x8---| x3
A|-------7----------8------|
E|-------------------------|


END
Tap to rate this tab
 
# A B C D E F G H I J K L M N O P Q R S T U V W X Y Z