Song name
# A B C D E F G H I J K L M N O P Q R S T U V W X Y Z

The Big Pink - Dominos tab

Tabbed by - UG: GangsterLi
            Email: vampireheart@live.co.uk

Artist: The Big Pink
Song: Dominos
Album: A Brief History of Love (2009)

I did not put in how many times to play each chord/riff because as a musician, I can 
count to four.

The Big Pink are one of my favourite bands and I noticed there was
barely any tabs for them. If anyone would like some tabs for more The Big Pink
songs please leave me a message on my UG profile and I'll post more.

Intro

  D D D D D D D D D D D D D D D D D D
e-------------------------------------|
B-------------------------------------|
G-7-7-7-7-7-7-7-7-7-7-7-7-7-7-7-7-7-7-|
D-0-0-0-0-0-0-0-0-0-0-0-0-0-0-0-0-0-0-|
A-5-5-5-5-5-5-5-5-5-5-5-5-5-5-5-5-5-5-|
E-------------------------------------|

Verse (Transcribed from bass to guitar)

e--------------|---------------|---------------|----------------|
B--------------|---------------|---------------|----------------|
G--------------|---------------|---------------|----------------|
D--------------|---------------|---------------|----------------|
A-9-\-7-/9-\-5-|-9-\-7-/-9-\-5-|-9-\-7-/-9-\-5-|-9-\-7-/-9-\-5--|
E--------------|---------------|---------------|----------------|

Chorus

e-----------------------------------------------------------------------------|
B-----------------------------------------------------------------------------|
G-11-11-11-11-11-11-11-11-7-7-7-7-7-7-7-7-12-12-12-12-12-12-12-12-12-12-12-12-|
D-x--x--x--x--x--x--x--x--x-x-x-x-x-x-x-x-x--x--x--x--x--x--x--x--x--x--x--x--|
A-9--9--9--9--9--9--9--9--5-5-5-5-5-5-5-5-10-10-10-10-10-10-10-10-10-10-10-10-|
E-----------------------------------------------------------------------------|

Bridge

e---------------------------------------|
B---------------------------------------|
G-7-7-7-7-7-7-7-7b-7-7-7-7-7-7-7-7b-7-7-|
D-0-0-0-0-0-0-0-0--0-0-0-0-0-0-0-0--0-0-|
A-5-5-5-5-5-5-5-5b-5-5-5-5-5-5-5-5b-5-5-|
E---------------------------------------|

Outro

 D D D D D D D D D D D D D D D D D D
e-------------------------------------|
B-------------------------------------|
G-7-7-7-7-7-7-7-7-7-7-7-7-7-7-7-7-7-7-|
D-0-0-0-0-0-0-0-0-0-0-0-0-0-0-0-0-0-0-|
A-5-5-5-5-5-5-5-5-5-5-5-5-5-5-5-5-5-5-|
E-------------------------------------|
Tap to rate this tab
 
# A B C D E F G H I J K L M N O P Q R S T U V W X Y Z