Song name
# A B C D E F G H I J K L M N O P Q R S T U V W X Y Z

The Bird And The Bee - Polite Dance Song tab

Fell in love with this group... this is my first time tabbing.


INTRO/VERSE
E----------------------|----------------------|
B-------9----11--------|-------9----11--------|
G---------10----9------|---------10----9------|
D----10-----------10---|----10-----------10---|
A--8-----------------10|--8-----------------10|
E----------------------|----------------------|


E----------------------|----------------------|
B------11--------------|----------------------|
G----10---10-12-----12-|--8-------8-9~--------|
D--8-----------13------|-------10-------------|
A-----------------13---|----11----------------|
E----------------------|----------------------|



CHORUS ... (one strum)
E----------------------|----------------------|
B----------------------|----------------------|
G--8-----10------------|----------------------|
D--8-----10-----10-----|--6-----8-----3-------|
A--6-----8------10-----|--6-----8-----3-------|
E---------------8------|--4-----6-----1-------|
.........|......|.........|.....|.....|             
.........pardon me....the music is moving                     


E------------------------------------|---------|
B------------------------------------|---------|
G--5-------------------------5-------|---(5)---|
D--5---------------3---------5-------|---(5)---|
A--3---------------3---------3-------|---(3)---|
E------------------1-----------------|---------|
...|...............|.........|                 
...moving from left..to right                                         




sambbraga@yahoo.com
[criticism and/or appreciation are welcome. thanks]
Tap to rate this tab
# A B C D E F G H I J K L M N O P Q R S T U V W X Y Z