Song name
# A B C D E F G H I J K L M N O P Q R S T U V W X Y Z

The Birthday Massacre - Unfamiliar tab

Guitarra 1
                     INTRO AND CHORUS                                       
       
E||--------------------------------------------|---------------------------|
B||--------------------------------------------|---------------------------|
G||--------------------------------------------|---------------------------|
D||-----4------------7-------------------------|---------------------------|
A||--1h-2------------5----------------5--------|--9-----------7------------|
D||-----------------------------------5--------|--9--0--------7------------|


    
--------------------------------------------|------------------------|--------|
--------------------------------------------|------------------------|--------|
--------------------------------------------|------------------------|--------|
-----4------------7-------------------------|------------------------|--9--9--|
--1h-2------------5----------------5--------|--9--2--------7----9----|--9--9--|
-----------------------------------5--------|--9--2--------7----9----|--9--9--|


           BRIDGE                         BRIDGE                             
        
--------|------------|--------|--------|------------|--------|--------|-----|
--------|------------|--------|--------|------------|--------|--------|-----|
--------|------------|--------|--------|------------|--------|--------|-----|
--5--5--|--7------7--|--9--9--|--5--5--|--7------7--|--2--2--|--7--9--|-----|
--5--5--|--7------7--|--9--9--|--5--5--|--7------7--|--2--2--|--5--7--|-----|
--5--5--|--7------7--|--9--9--|--5--5--|--7------7--|--2--2--|--------|-----|


                    BRIDGE                         BRIDGE                       
  
--------|--------|------------|--------|--------|------------|--------|--------|
--------|--------|------------|--------|--------|------------|--------|--------|
--------|--------|------------|--------|--------|------------|--------|--------|
--9--9--|--5--5--|--7------7--|--9--9--|--5--5--|--7------7--|--2--2--|--7--9--|
--9--9--|--5--5--|--7------7--|--9--9--|--5--5--|--7------7--|--2--2--|--5--7--|
--9--9--|--5--5--|--7------7--|--9--9--|--5--5--|--7------7--|--2--2--|--------|


  
--------------------------------------|--------------|
--------------------------------------|--------------|
--------------------------------------|--------------|
--------------------------7--7--7--7--|--7--7--7--7--|
--5--5--5--5--5--5--5--5--5--5--5--5--|--5--5--5--5--|
--5--5--5--5--5--5--5--5--------------|--------------|


  
--------------------------|--------------------------|
--------------------------|--------------------------|
--------------------------|--------------------------|
--------------------------|--------------------------|
--7--7--7--7--7--7--7--7--|--2--2--2--2--2--2--2--2--|
--7--7--7--7--7--7--7--7--|--2--2--2--2--2--2--2--2--|


  
--------------------------------------|--------------|
--------------------------------------|--------------|
--------------------------------------|--------------|
--------------------------7--7--7--7--|--7--7--7--7--|
--5--5--5--5--5--5--5--5--5--5--5--5--|--5--5--5--5--|
--5--5--5--5--5--5--5--5--------------|--------------|


 
--------------------------|-----------------||
--------------------------|-----------------||
--------------------------|-----------------||
--------------------------|-----------------||
--7--7--7--7--7--7--7--7--|--2--2--2--7--9--||
--7--7--7--7--7--7--7--7--|--2--2--2--7--9--||



Guitarra 2
     
E||---------|-----------------------|--------------------|
B||---------|-----------------------|--------------------|
G||---------|-----------------------|--------------------|
D||--2S--4--|--7----9---------------|----------4----2----|
A||---------|------------7----9~----|--5--5--------------|
D||---------|-----------------------|--------------------|


                                             
----------------------|------------|-------|-------|-------|-------|-------|
----------------------|------------|-------|-------|-------|-------|-------|
----------------------|------------|-------|-------|-------|-------|-------|
--4-------------------|------------|-------|-------|-------|-------|-------|
-------5--------------|------------|-------|-------|-------|-------|-------|
------------2----5----|--7----9----|-------|-------|-------|-------|-------|


                  E  E     E  E     E  E     E      E   E   E               
-------|-------|--------------------------------|--12----------|-----|-----|
-------|-------|--8--7brb--8--7brb--8--7brb--8--|------12------|-----|-----|
-------|-------|--------------------------------|----------12--|-----|-----|
-------|-------|--------------------------------|--------------|-----|-----|
-------|-------|--------------------------------|--------------|-----|-----|
-------|-------|--------------------------------|--------------|-----|-----|


-----|-----|-----|-----|-----|-------|-------|-------|-------|-------|-------|
-----|-----|-----|-----|-----|-------|-------|-------|-------|-------|-------|
-----|-----|-----|-----|-----|-------|-------|-------|-------|-------|-------|
-----|-----|-----|-----|-----|-------|-------|-------|-------|-------|-------|
-----|-----|-----|-----|-----|-------|-------|-------|-------|-------|-------|
-----|-----|-----|-----|-----|-------|-------|-------|-------|-------|-------|


-------|-------||
-------|-------||
-------|-------||
-------|-------||
-------|-------||
-------|-------||
Tap to rate this tab
# A B C D E F G H I J K L M N O P Q R S T U V W X Y Z