Song name
# A B C D E F G H I J K L M N O P Q R S T U V W X Y Z

The Birthday Massacre - Walking With Strangers tab

Intro:

---------------------------------------------------------------------------|
---------------------------------------------------------------------------|
------------2-------------------0------------------5-------------------4---|
--------0-------------------3--------------3---5-------------------5-------|
----0-------------------3--------------3-----------------------5-----------|
0-------------------3--------------------------------------5---------------|


Chorus:

---------------------------------------------------------------------------|
---------------------------------------------------------------------------|
----------------------------------------5--5----5--5----5--5---------------|
0--0---0--0---0--0--3--3---3--3---3--3--5--5----5--5----5--5---5--5---5--5-|
0--0---0--0---0--0--3--3---3--3---3--3--3--3----3--3----3--3---5--5---5--5-|
0--0---0--0---0--0--3--3---3--3---3--3-------------------------5--5---5--5-|


Verse:

[PM.............................................................]
5-5-----------------------------3-3------------------------------|
------------3-3-5-5-3-3-6-6-5-5-----6-6-5-5-3-3-6-6-5-5-3-3------|
----2-2-5-5-------------------------------------------------5-5--|
-----------------------------------------------------------------|
-----------------------------------------------------------------|
-----------------------------------------------------------------|


Solo:

------------------------------------------|
------------------------------------------|
7-------10---9----------------5-------5---|
-----------------10---7-----------5-------|    x2
------------------------------------------|
------------------------------------------|
Tap to rate this tab
 
# A B C D E F G H I J K L M N O P Q R S T U V W X Y Z