The Birthday Massacre - Shiver tab

    A painting for every face...

---------------------------------------------------------------------------|
---------------------------------------------------------------------------|
---------------------------------------------------------------------------|
7--7---------10--10-------7--7----2--2----10--10----5--5----0--0-----------|
7--7---------10--10-------7--7----2--2----10--10----5--5----0--0-----------|
7--7---------10--10-------7--7----2--2----10--10----5--5----0--0-----------|


She can't afford to come off hot...

---------------------------------------------------------------------------|
---------------------------------------------------------------------------|
---------------------------------------------------------------------------|
3--3---------10--10------12--12----7--7----10--10----0--0------------------|
3--3---------10--10------12--12----7--7----10--10----0--0------------------|
3--3---------10--10------12--12----7--7----10--10----0--0------------------|


All the hands along the wall...

[pm........................................................................
---------------------------------------------------------------------------|
---------------------------------------------------------------------------|
---------------------------------------------------------------------------|
0-0-0-0-0-0-0-0-7-7-7-7-7-7-7-7-10-10-10-10-10-10-10-10-5-5-5-5-5-5-5-5----|
0-0-0-0-0-0-0-0-7-7-7-7-7-7-7-7-10-10-10-10-10-10-10-10-5-5-5-5-5-5-5-5----|
0-0-0-0-0-0-0-0-7-7-7-7-7-7-7-7-10-10-10-10-10-10-10-10-5-5-5-5-5-5-5-5----|


lines divide the heart in two...

....................................................................]
--------------------------------------------------------------------|
--------------------------------------------------------------------|
--------------------------------------------------------------------|
0-0-0-0-0-0-0-0-7-7-7-7-7-7-7-7-2-2-2-2-2-2-2-2-5-5-5-5-5-5-5-5-----|
0-0-0-0-0-0-0-0-7-7-7-7-7-7-7-7-2-2-2-2-2-2-2-2-5-5-5-5-5-5-5-5-----|
0-0-0-0-0-0-0-0-7-7-7-7-7-7-7-7-2-2-2-2-2-2-2-2-5-5-5-5-5-5-5-5-----|


she's walking over you...

----------------------------------------------------------------|
----------------------------------------------------------------|
----------------------------------------------------------------|
3-3-3-3-3-3-3-3-3-3-3-3-3-3-3-3-7-7-7-7-7-7-7-7-5-5-5-5-5-5-5-5-|
3-3-3-3-3-3-3-3-3-3-3-3-3-3-3-3-7-7-7-7-7-7-7-7-5-5-5-5-5-5-5-5-|
3-3-3-3-3-3-3-3-3-3-3-3-3-3-3-3-7-7-7-7-7-7-7-7-5-5-5-5-5-5-5-5-|


                                breaking her fall over you...

------------------------------------------------------------------------|
------------------------------------------------------------------------|
------------------------------------------------------------------------|
3-3-3-3-3-3-3-3-3-3-3-3-3-3-3-3-10-10-10-10-10-10-10-10-5-5-5-5-5-5-5-5-|
3-3-3-3-3-3-3-3-3-3-3-3-3-3-3-3-10-10-10-10-10-10-10-10-5-5-5-5-5-5-5-5-|
3-3-3-3-3-3-3-3-3-3-3-3-3-3-3-3-10-10-10-10-10-10-10-10-5-5-5-5-5-5-5-5-|


                                    broken hearts are never true...

---------------------------------------------------------------------------|
---------------------------------------------------------------------------|
---------------------------------------------------------------------------|
7------7--------2------2--------5------5--------3------3-------------------|
7------7--------2------2--------5------5--------3------3-------------------|
7------7--------2------2--------5------5--------3------3-------------------|


                                    shadows walking over you...

---------------------------------------------------------------------------|
---------------------------------------------------------------------------|
---------------------------------------------------------------------------|
7------7--------2------2--------5------5--------0------0-------------------|
7------7--------2------2--------5------5--------0------0-------------------|
7------7--------2------2--------5------5--------0------0-------------------|
Tap to rate this tab
 
# A B C D E F G H I J K L M N O P Q R S T U V W X Y Z