Song name
# A B C D E F G H I J K L M N O P Q R S T U V W X Y Z

The Birthday Massacre - Long Way Home tab

-------------------------------------------------------------------------------
                             THE LONG WAY HOME - The Birthday Massacre
-------------------------------------------------------------------------------
Tabbed by: Kiera
E-mail: evanescenceguitarist@yahoo.com

Tuning: Drop D

This tab has some parts that aren't actually played on guitar but I wrote
the notes you could play to follow the bass/keys/vocals.

Verse 1
Riff 1 x3
e|-------------------------------------------------------|
B|-------------------------------------------------------|
G|-------------------------------------------------------|
D|-------------------------------------------------------|
A|-5-----------8--------0--------------------------------|
D|-5-----------8--------0--------------------------------|
 |(actual guitar)V
e|-------------------------------------------------------|
B|-------------------------------------------13----------|
G|-15-12-14----15-12-14----15-12-14----15-12----12-------|
D|----------15----------12----------15-------------------|
A|-------------------------------------------------------|
D|-------------------------------------------------------|

Riff 2
e|-------------------------------------------------------|
B|-------------------------------------------------------|
G|-------------------------------------------------------|
D|-------------------------------------------------------|
A|-1-----------3-----------5-----------8-----------------|
D|-1-----------3-----------5-----------8-----------------|
 |
e|-------------------------------------------------------|
B|-------------13----------15----------13----------------|
G|-15-12-14-12----12-15-12----12-15-12----12-14-12-------|
D|-------------------------------------------------------|
A|-------------------------------------------------------|
D|-------------------------------------------------------|


Chorus
e|--------------------------------------------------------------------------|
B|--------------------------------------------------------------------------|
G|--------------------------------------------------------------------------|
D|--------------------------------------------------------------------------|
A|-10-----3-5-----8-10---1---5-------10---1---5-------1---8---10----\-------|
D|-10-----3-5-----8-10---1---5-------10---1---5-------1---8---10----\-------|


Verse 2
Same as Verse 1 for the rhythm 
I'm working on tabbing out the keys for guitar during this part
Riff 1 x3
e|-------------------------------------------------------|
B|-------------------------------------------------------|
G|-------------------------------------------------------|
D|-------------------------------------------------------|
A|-5-----------8--------0--------------------------------|
D|-5-----------8--------0--------------------------------|


Riff 2
e|-------------------------------------------------------|
B|-------------------------------------------------------|
G|-------------------------------------------------------|
D|-------------------------------------------------------|
A|-1-----------3-----------5-----------8-----------------|
D|-1-----------3-----------5-----------8-----------------|


Chorus

END

Thanks for looking!
I'm currently working on the rest of this album :)

************************************

| /   slide up
| \   slide down
| h   hammer-on
| p   pull-off
| ~   vibrato
| +   harmonic
| x   Mute note
| b   Bend
| pb  Pre-bend
| br  Bend release
| pbr Pre-bend release
| brb Bend release bend

************************************
Tap to rate this tab
# A B C D E F G H I J K L M N O P Q R S T U V W X Y Z