Song name
# A B C D E F G H I J K L M N O P Q R S T U V W X Y Z

The Birthday Massacre - Video Kid tab

Band: The Birthday Massacre
Song: Video Kid

This is the part for Rhythm guitar (Rainbow's part)

tuning: drop D


intro:
---------------------------------------------------------------|
---------------------------------------------------------------|
---------------------------------------------------------------|
--22-220-5500-77-770-5500-22-220-5500-77-770-554---------------|
--22-220-5500-77-770-5500-22-220-5500-77-770-554---------------|
--22-220-5500-77-770-5500-22-220-5500-77-770-554---------------|X2

for the first part of the first verse there is no playing

Mid first verse:
---------------------------------------------------------------|
---------------------------------------------------------------|
---------------------------------------------------------------|
--22222222-5555-0000--77777777-5555-0000-----------------------|
--22222222-5555-0000--77777777-5555-0000-----------------------|
--22222222-5555-0000--77777777-5555-0000-----------------------|

"broke the sissy boy's teeny toy heart in two"

---------------------------------------------------------------|
---------------------------------------------------------------|
---------------------------------------------------------------|
--22222222-5555-0000--77777777-5555-4444-----------------------|
--22222222-5555-0000--77777777-5555-4444-----------------------|
--22222222-5555-0000--77777777-5555-4444-----------------------|

"turned him into a video kid like you"

---------------------------------------------------------------|
---------------------------------------------------------------|
---------------------------------------------------------------|
--22-55-00-77-55-00--22-55-00-77-55/9-55-44--------------------|
--22-55-00-77-55-00--22-55-00-77-55/9-55-44--------------------|
--22-55-00-77-55-00--22-55-00-77-55/9-55-44--------------------|

"I know we're..."

again you wait to play in the second verse, played exactly the same
as the first verse, then for the last chorus and outro you play the intro
part. It is a very easy song to play if you know the song.







Tap to rate this tab
 
# A B C D E F G H I J K L M N O P Q R S T U V W X Y Z