Song name
# A B C D E F G H I J K L M N O P Q R S T U V W X Y Z

The Birthday Massacre - Lovers End tab

The Birthday Massacre
Lovers End
From the album Violet

tunning drop d (DADGBE)

p = palm mute
r = let ring


main riff (chords)
e|-------------------------------------------------------------------------|
B|-------------------------------------------------------------------------|
G|---------------------2-----4--5-------------------------5----------------|
D|---2----/9-----0-----2-----4--5-----0-------2-----0-----5-----5-----1----|
A|---2----/9-----0-----0-----2--3-----0-------2-----0-----3-----5-----1----|
D|---2----/9-----0--------------------0-------2-----0-----------5-----1----|


reverb guitar (3:01)
e|------------------------------------|
B|-------9r-------------9r------------|
G|---7---------7-------------7--------|
D|---------------10-9----------7-6----|
A|------------------------------------|
D|------------------------------------|


solo part (3:25)
e|-------------------------------------------------|
B|-------------------------------------------------|
G|---------------0-0-2------------------0-0--------|
D|---2--2-2-0----------2----2--2-2-0--------0-2----|
A|-------------------------------------------------|
D|-------------------------------------------------|


rhytm guitar in the solo part (3:49)
e|---------------------------------------------------|
B|---------------------------------------------------|
G|---------------------------------------------------|
D|---2-2---2-------2----2----2----2-2-2-2-2-3-3-3----|
A|---2-2---2-------2----2----2----2-2-2-2-2----------|
D|---2-2---2-------2----2----2----2-2-2-2-2----------|
     p p   p       p    p    p    p p p p p
Tap to rate this tab
 
# A B C D E F G H I J K L M N O P Q R S T U V W X Y Z