Guitaretab - guitar tabs
Song name
# A B C D E F G H I J K L M N O P Q R S T U V W X Y Z

The Black Angels - The Dark tab

16.Streamline




Intro(clean):
   pm.............
1:------------------|
2:------------------|
3:------------------|
4:------------------|
5:------------------|
6:-0--0-5b7--0-0-3--|


A(w/distortion)
1:--------------|
2:--------------|
3:--------------|
4:-5-5-5-5-5-5--|
5:-5-5-5-5-5-5--|
6:-5-5-5-5-5-5--|


B(w/distortion)
1:------------------|
2:------------------|
3:------------------|
4:------------------|
5:-0--0------0-0----|
6:-0--0-5b7--0-0-3--|


C(w/distortion)
1:-------------|
2:-------------|
3:-------------|
4:-8-8-8-8-7-5-|
5:-8-8-8-8-7-5-|
6:-8-8-8-8-7-5-|


D1(clean)
1:------------------------------------------------------|-----------------|
2:------10-------10-------10-------10-------10-------10-|-------11------8-|
3:---11-------11-------11-------11-------11-------11----|----10-------7---|
4:-0--------0--------0--------0--------0--------0-------|--8--------5-----|
5:------------------------------------------------------|-----------------|
6:------------------------------------------------------|-----------------|

D2(clean)
1:----------------------------------------------------|----------------|
2:------10-------10-------10-------10-------10------6-|-------6------8-|
3:---11-------11-------11-------11-------11-------7---|----7-------7---|
4:-0--------0--------0--------0--------0--------0-----|--8-------5-----|
5:----------------------------------------------------|----------------|
6:----------------------------------------------------|----------------|

D3(clean)
1:------------------------------------------------------|-----------------|
2:------10-------10-------10-------10-------10-------10-|-----------------|
3:---11-------11-------11-------11-------11-------11----|-----------------|
4:-0--------0--------0--------0--------0--------0-------|--8--------5-----|
5:------------------------------------------------------|-----------------|
6:------------------------------------------------------|-----------------|


E1(w/distortion):
1:-------------|-------------|-------------|-10-10-10-10-10-10-|
2:-------------|-------------|-------------|-10-10-10-10-10-10-|
3:-------------|-------------|-------------|-------------------|
4:-5-5-5-5-5-5-|-5-5-5-5-5-5-|-5-5-5-5-5-5-|-------------------|
5:-5-5-5-5-5-5-|-5-5-5-5-5-5-|-5-5-5-5-5-5-|-------------------|
6:-5-5-5-5-5-5-|-5-5-5-5-5-5-|-5-5-5-5-5-5-|-------------------|


Solo(w/distortion):
1:-10------12------13------15-13-12--13-12^13^12-10-|
2:-----10------10------10---------------------------|
3:--------------------------------------------------|
4:--------------------------------------------------|
5:--------------------------------------------------|
6:--------------------------------------------------|
[ Tab from: http://www.guitaretab.com/t/the-black-angels/143643.html ]
1:-10------12------13-------15-13-12--13-12^13^12-13-|--17---------------------------|
2:-----10------10------10----------------------------|------17---18-17-15--17-15-----|
3:---------------------------------------------------|---------------------------17--|
4:---------------------------------------------------|-------------------------------|
5:---------------------------------------------------|-------------------------------|
6:---------------------------------------------------|-------------------------------|

1:-17--------------------------------|--10------12------13-------15-13-12--13-12^13^12-13-|
2:-----17---18-17^18^17-15--17-15----|------10------10------10----------------------------|
3:--------------------------------17-|----------------------------------------------------|
4:-----------------------------------|----------------------------------------------------|
5:-----------------------------------|----------------------------------------------------|
6:-----------------------------------|----------------------------------------------------|

1:-17--------------------------------|--17--------------------------------|
2:-----17---18-17^18^17-15--17-15----|------17---18-17^18^17-15--17-15----|
3:--------------------------------17-|---------------------------------17-|
4:-----------------------------------|------------------------------------|
5:-----------------------------------|------------------------------------|
6:-----------------------------------|------------------------------------|

pm..............................................................................
1:-17-17-17------------------------------|-17-17-17------------------------------|
2:-----------17-17-17--18-17-15-17-15----|-----------17-17-17--18-17-15-17-15----|
3:------------------------------------17-|------------------------------------17-|
4:---------------------------------------|---------------------------------------|
5:---------------------------------------|---------------------------------------|
6:---------------------------------------|---------------------------------------|

pm.................................................................
1:-17-17-17------------------------------------|-17-17-17------------------------|
2:-----------17-17-17--18-17^18^17-15-17-15----|-----------17-17-17--------------|
3:------------------------------------------17-|---------------------------------|
4:---------------------------------------------|---------------------5-5-5-5-5-5-|
5:---------------------------------------------|---------------------5-5-5-5-5-5-|
6:---------------------------------------------|---------------------5-5-5-5-5-5-|


E2(w/distortion):
1:-------------|-------------|-------------|-------------|
2:-------------|-------------|-------------|-------------|
3:-------------|-------------|-------------|-------------|
4:-5-5-5-5-5-5-|-5-5-5-5-5-5-|-5-5-5-5-5-5-|-5-5-5-5-5-5-|
5:-5-5-5-5-5-5-|-5-5-5-5-5-5-|-5-5-5-5-5-5-|-5-5-5-5-5-5-|
6:-5-5-5-5-5-5-|-5-5-5-5-5-5-|-5-5-5-5-5-5-|-5-5-5-5-5-5-|


Related for The Dark tab