Song name
# A B C D E F G H I J K L M N O P Q R S T U V W X Y Z

The Black Angels - Young Men Dead tab

-------------------------------------------------------------------------------
			     YOUNG MEN DEAD - The Black Angels
-------------------------------------------------------------------------------

Album: Passover
Tabbed by: Jack Niehsner
Tuning: Standard

This is only the basic outline of what to play. There's lots of freedom to improvise, 
it's quite fun to muck around with this song. I'm not gonna tab the specifics, you'll have 
listen to it to get the feeling of what to play.

Main Riff
e|---------------------------------------|
B|---------------------------------------|
G|---------------------------------------|
D|-------------3b---------------------3--|
A|-0-3-4-5-5-5----5-5-35-0-3-4-5-5-5----5|
E|---------------------------------------|

e|-------------------------------------------------|
B|-------------------------------------------------|
G|-------------------------------------------------|
D|-------------3b---------------------3h5b-3h5b-3b-|
A|-0-3-4-5-5-5----5-5-35-0-3-4-5-5-5--------------5|
E|-------------------------------------------------|

Most of the singing parts you're just playing around the 5th fret of the A string (D).


Chorus

'With a drop of Blood, trying to set you free'
e|-----------------|
B|-----------------|
G|-----------------|
D|-5-5-5-5-5-5-5-5-|
A|-5-5-5-5-3-3-3-3-|
E|-3-3-3-3-3-3-3-3-| x 2


Solo

A lot is repeated, but this is the basic gist of things, you should be able to figure 
the rest

e|---------------------------------------------------|
B|---------------------------------------------------|
G|---------------------------------------5-5-5-5-7-7-|
D|-------------3h5b-3h5b-3h5b/7-777777/9--7-7-7------|
A|-0-3-4-5-5-5---------------------------------------|
E|---------------------------------------------------|

e|-------------------------------------------------------------------|
B|-------------------------------------------------------------------|
G|-10-10-7-7--10-10-7-7-77-10b-7-10b-7-10b-7-10b-7-10b--5-5-5-5-5-77-|
D|-------------------------------------------------------7-7-7-7-----|
A|-------------------------------------------------------------------|
E|-------------------------------------------------------------------|

And that's that. Enjoy!
************************************

| /   slide up
| \   slide down
| h   hammer-on
| p   pull-off
| ~   vibrato
| +   harmonic
| x   Mute note
| b   Bend
| pb  Pre-bend
| br  Bend release
| pbr Pre-bend release
| brb Bend release bend

************************************
Tap to rate this tab
 
# A B C D E F G H I J K L M N O P Q R S T U V W X Y Z