The Black Angels - Yellow Elevator 2 tab

-------------------------------------------------------------------------------
			     YELLOW ELEVATOR #2 - The Black Angels
-------------------------------------------------------------------------------
Tabbed by: elmatador13
Email: 14rays@gmail.com
Tuning: Standard.

If you have any questions, email me.
Sounds eerie and sorta psychedelic. Enjoy.

comes in at 0:08
e|-------------------------12------------------------------------------------|
B|-----12--------------------------------------7-------------9------10-------|
G|----------------9----------------7-8-7---7-8----7-8-7--7-8----7-8----------|
D|-------------------------------9-------9-------9------9------9-------------|
A|---------------------------------------------------------------------------|
E|---------------------------------------------------------------------------|

e|---------------------------------------------------------------------------|
B|---------9--------------7-------------7------9------10------9--------------|
G|-----7-8-----7-8-7--7-8----7-8-7--7-8----7-8----7-8-----7-8----------------|
D|---9-------9------9------9------9------9-------9------9--------------------|
A|---------------------------------------------------------------------------|
E|---------------------------------------------------------------------------|

e|---------------------------------------------------------------------------|
B|----------6----6----6----6----6--------------------------------------------|
G|--------8----8----8----8----8----------------------------------------------|
D|------9----9----9----9----9------------------------------------------------|
A|---------------------------------------------------------------------------|
E|---------------------------------------------------------------------------|

Tap to rate this tab
 
# A B C D E F G H I J K L M N O P Q R S T U V W X Y Z