Song name
# A B C D E F G H I J K L M N O P Q R S T U V W X Y Z

The Black Angels - Bad Vibrations tab

Main Verse Riff:

e|-------------------------------------------------------------------------|
B|-------------------------------------------------------------------------|
G|-------------------------------------------------------------------------|
D|--0--7-6---5-3-0---------------------------------------------------------|
A|-------------------------------------------------------------------------|
E|-------------------------------------------------------------------------|

The other variations:

Played in Chorus (we made love in June)

e|-------------------------------------------------------------------------|
B|-------------------------------------------------------------------------|
G|-------------------------------------------------------------------------|
D|--0-7-10~-7-10~-7-6-5----------------------------------------------------|
A|-------------------------------------------------------------------------|
E|-------------------------------------------------------------------------|

Bridge (introduced after I felt that way and used again later):

e|-------------------------------------------------------------------------|
B|-------------------------------------------------------------------------|
G|-------------------------------------------------------------------------|
D|--15-18~--15-18~---------------------------------------------------------|
A|-----------------15-16-17------------------------------------------------|
E|-------------------------------------------------------------------------|



End (after the scream):

e|---5-555----|----8--8-8-8--|---------------------------------------------|
B|---7-777----|----10-101010-|---------------------------------------------|
G|---7-777----|x?--10-101010-|x?----repeat this insideoutside part---------|
D|---7-777----|----10-101010-|--------end on D-----------------------------|
A|---5-555----|----8--8-8-8--|---------------------------------------------|
E|------------|--------------|---------------------------------------------|

PS these chords are used in the back up of the studio song but I think they're played on 
a keyboard/organ live
Tap to rate this tab
 
# A B C D E F G H I J K L M N O P Q R S T U V W X Y Z