The Black Angels - My Boat Is Sinking tab

--------------------------------------------------------------------------------
			                         My Boat is Sinking - The Black Angels
--------------------------------------------------------------------------------
Tabbed by: Myself
Email: sstop1200@hotmail.com

Tuning:Drop D

This repeats through the whole song:

e-----2-------2-------2-------0------|
B-----3-------3-------3-------5------|
G-----2-------2-------2-------0------|
D-0-0---0-0-0---0-0-0---0---------0--|
A-0-0---0-0-0---0-0-0---0---------0--|
D-0-0---0-0-0---0-0-0---0-5-5---5-0--|

Oh my, my...
My boat is sinking
I'm drifting here
On my sacred bed
I'm moving along
With all my belongs
What do I do
To keep the sunshine in

Oh I will save you
Oh I will hold you
I'll be there on your birthday honey
I'll be there when you dont see

Well, well, well
Thank you for thinking
I just found out
My house is in flame
And what you gonna do for me
And what you gonna sing for me
Keep me a moving
To keep the sunshine in

Oh I will save you
And I will hold you
I'll be there on your birthday darling
I'll be there when you need me

Oh my, my...
I found out I'm dying darling
What do I do
TO Keep the sunshine in
What you gonna sing for me
What you gonna do for me
TO Keep me moving baby
To keep the sunshine in

Oh I will save you
Oh I will hold you
I'll be there when you need me
And I will die for you

You loosen me
You make me feel
You loosen me
You make me feel
Tap to rate this tab
 
# A B C D E F G H I J K L M N O P Q R S T U V W X Y Z