Song name
# A B C D E F G H I J K L M N O P Q R S T U V W X Y Z

The Black Angels - Haunting At 1300 Mckinley tab

Haunting At 1300 McKinley
The Black Angels
Phosphene Dream

^ = Upstroke
                   ^       ^                  ^       ^
E|--3-3-4-5---------------------3-3-4-5--------------------------------------|
A|---------------------------------------------------------------------------|
D|-------------7---7---7---7--------------7---7---7---7----------------------|
G|-------------6---6---6---6--------------6---6---6---6----------------------|
B|-------------5---5---5---5--------------5---5---5---5----------------------|
e|-------------5---5---5---5--------------5---5---5---5----------------------|

                   ^       ^                  ^       ^
E|--3-3-4-5---------------------3-3-4-5--------------------------------------|
A|---------------------------------------------------------------------------|
D|-------------7---7---7---7--------------7---7---7---7----------------------|
G|-------------6---6---6---6--------------6---6---6---6----------------------|
B|-------------5---5---5---5--------------5---5---5---5----------------------|
e|-------------5---5---5---5--------------5---5---5---5----------------------|

                   ^       ^                  ^       ^
E|--3-3-4-5---------------------3-3-4-5--------------------------------------|
A|---------------------------------------------------------------------------|
D|-------------7---7---7---7--------------7---7---7---7----------------------|
G|-------------6---6---6---6--------------6---6---6---6----------------------|
B|-------------5---5---5---5--------------5---5---5---5----------------------|
e|-------------5---5---5---5--------------5---5---5---5----------------------|
                  ^       ^                  ^       ^
E|------------------------------------------------------------------------|
A|--3-3-4-5--------------------3-3-4-5------------------------------------|
D|------------------------------------------------------------------------|
G|------------7---7---7---7--------------7---7---7---7--------------------|
B|------------10--10--10--10-------------10--10--10--10-------------------|
e|------------10--10--10--10-------------10--10--10--10-------------------|

                   ^       ^                  ^       ^
E|--3-3-4-5---------------------3-3-4-5--------------------------------------|
A|---------------------------------------------------------------------------|
D|-------------7---7---7---7--------------7---7---7---7----------------------|
G|-------------6---6---6---6--------------6---6---6---6----------------------|
B|-------------5---5---5---5--------------5---5---5---5----------------------|
e|-------------5---5---5---5--------------5---5---5---5----------------------|
              ^       ^                     ^       ^
E|--------------------------------------------------------|
A|--5-5-6-7--------------------3-3-4-5--------------------|
D|--------------------------------------------------------|
G|------------9---9---9---9-------------7---7---7---7-----|
B|------------12--12--12--12------------10--10--10--10----|
e|------------12--12--12--12------------10--10--10--10----|

                   ^       ^                  ^       ^
E|--3-3-4-5---------------------3-3-4-5--------------------------------------|
A|---------------------------------------------------------------------------|
D|-------------7---7---7---7--------------7---7---7---7----------------------|
G|-------------6---6---6---6--------------6---6---6---6----------------------|
B|-------------5---5---5---5--------------5---5---5---5----------------------|
e|-------------5---5---5---5--------------5---5---5---5----------------------|

                   ^       ^                  ^       ^
E|--3-3-4-5------------------0-0--0-3-3-4-5----------------------------------|
A|---------------------------------------------------------------------------|
D|-------------7---7---7---7--------------7---7---7---7----------------------|
G|-------------6---6---6---6--------------6---6---6---6----------------------|
B|-------------5---5---5---5--------------5---5---5---5----------------------|
e|-------------5---5---5---5--------------5---5---5---5----------------------|

Guitar 1 continues like that^

Guitar 2
E|--3-3-4-5-------------------------3-3-4-5--------------------|
A|-------------------------------------------------------------|
D|-------------------------------------------------------------|
G|-------------------------------------------------------------|
B|-------------------------------------------------------------|
e|-------------------------------------------------------------|

E|--------------------------------------------------------------|
A|--3-3-4-5------------------3-3-4-5----------------------------|
D|--------------------------------------------------------------|
G|--------------------------------------------------------------|
B|--------------------------------------------------------------|
e|--------------------------------------------------------------|

E|--3-3-4-5-------------------------3-3-4-5--------------------|
A|-------------------------------------------------------------|
D|-------------------------------------------------------------|
G|-------------------------------------------------------------|
B|-------------------------------------------------------------|
e|-------------------------------------------------------------|

E|-------------------------------------------------------------|
A|--5-5-6-7--------------------------3-3-4-5-------------------|
D|-------------------------------------------------------------|
G|-------------------------------------------------------------|
B|-------------------------------------------------------------|
e|-------------------------------------------------------------|

"In the night I roam. Hey, hey, hey!"
Guitar 1
E|--------------------------------------------------------------|
A|--------------------------------------------------------------|
D|--7---7---7-7--7---7-7--7-------------------------------------|
G|--6---6---6-6--6---6-6--6-------------------------------------|
B|--5---5---5-5--5---5-5--5-------------------------------------|
e|--5---5---5-5--5---5-5--5-------------------------------------|
            ^     ^                           ^     ^
E|--3-3-4-5-------------------------3-3-4-5----------------------------|
A|---------------------------------------------------------------------|
D|----------7--7--7--7------------------------7--7--7--7---------------|
G|----------6--6--6--6------------------------6--6--6--6---------------|
B|----------5--5--5--5------------------------5--5--5--5---------------|
e|----------5--5--5--5------------------------5--5--5--5---------------|

E|--3-3-4-5-------------------------3-3-4-5----------------------------|
A|---------------------------------------------------------------------|
D|-----------7--7--7--7----------------------7--7--7--7----------------|
G|-----------6--6--6--6----------------------6--6--6--6----------------|
B|-----------5--5--5--5----------------------5--5--5--5----------------|
e|-----------5--5--5--5----------------------5--5--5--5----------------|

E|--3-3-4-5-------------------------3-3-4-5----------------------------|
A|---------------------------------------------------------------------|
D|-----------7--7--7--7----------------------7--7--7--7----------------|
G|-----------6--6--6--6----------------------6--6--6--6----------------|
B|-----------5--5--5--5----------------------5--5--5--5----------------|
e|-----------5--5--5--5----------------------5--5--5--5----------------|

That's about it.
Tap to rate this tab
# A B C D E F G H I J K L M N O P Q R S T U V W X Y Z