Song name
# A B C D E F G H I J K L M N O P Q R S T U V W X Y Z

The Black Angels - Haunting At 1300 Mckinley tab

This is a great song: it's easy to learn and fun to play. For distortion I find a
twang setting with medium drive/gain and a wah pedal to be pretty close. Use the
peak wah setting for the intro, then push it to the low setting for the chorus part.

Intro/Verse
Riff 1
e|--------------------|
B|--------------------|
G|----------6--6--6--6|
D|----------7--7--7--7|
A|----------7--7--7--7|
E|-3-3-4-5--5--5--5--5| Repeat x6

Riff 2
Change on line
"'You frightened?' she said. 'No one can hear us at all'"
e|-----------------|
B|---------7-7-7-7-|
G|---------7-7-7-7-|
D|---------7-7-7-7-|
A|3-3-4-5--5-5-5-5-|
E|-----------------| x2

Repeat Riff 1 twice: "There was this thought I was sane..."
Repeat Riff 2 once: "Don't be worried"
Repeat Riff 1: "Is all she said"

Pre-Chorus/Chorus
Riff 3. This comes right after the verse, beginning right before the line "Oh baby you whine"
e|------- |---------------------------------------|
B|------- |---------------------------------------|
G|------- |---------------------------------------|
D|------- |---------------------------------------|
A|------- |---------------------------------------|
E|3-3-4-5 |-5-5-p3-5h-p3-5h-3-5h-p3-5h-5-5-0-0-3-4|x4

Repeat Verse

The final chorus is the same except towards the end the riff changes to
e|---------------------|
B|---------------------|
G|---------------------|
D|---------------------|
A|-5-3-----------------|
E|5-5-5-5--5-5-0-0-3-4-|
Tap to rate this tab
# A B C D E F G H I J K L M N O P Q R S T U V W X Y Z