Song name
# A B C D E F G H I J K L M N O P Q R S T U V W X Y Z

The Black Angels - Doves tab

Doves by The Black Angels:

I can't believe no one tabbed this yet! This song is awesome, especially if you
crank the gain, and have a tremolo pedal around.

Anyway, it's pretty easy so listen to the song and refer to the following chords:

First Chord:

E|--2--
B|--3--
G|--2--
D|--0--
A|--0--
E|--0--

Guitar In The Background is doing the following

After strumming along with the D Chord as well:

E|--2-h-3---------|
B|--------3-------|
G|-----------2----|
D|----------------|
A|----------------|
E|----------------|

Chords During The Bridge: C Maj, G Maj, and D Maj

C Major:

E|-----
B|--5--
G|--5--
D|--5--
A|--3--
E|-----

G Major:


E|------|
B|--12--|
G|--12--|
D|--12--|
A|--10--|
E|------|


Back To D Major:

E|--2--
B|--3--
G|--2--
D|--0--
A|--0--
E|--0--

Spacemen 3 Section Near The End:

E|-------------------------------------------------------------------|
B|-------------------------------------------------------------------|
G|-------------------------------------------------------------------|
D|-----12--------12-----10-----10-----8--------8-----7--7-8-7--7-8-7-|
A|--0------0--0------0------0------0-----0--0-----0------------------|
E|-------------------------------------------------------------------|


And that's it! Have fun! :D
Tap to rate this tab
# A B C D E F G H I J K L M N O P Q R S T U V W X Y Z