Song name
# A B C D E F G H I J K L M N O P Q R S T U V W X Y Z

The Black Angels - Dont Play With Guns tab

------------------------------------------------------------------------------
                 The Black Angels - Don't PLay With The Guns
------------------------------------------------------------------------------
Tuning: Standart
That 100% tab correct .

Bass Start : Verse riff :

 E|--2--2-0-2--2-0-2--2-0-2--2-0-2--||

Then : Guitar and bass together :
e|----------------------------|
B|----------------------------|
G|----------------------------|
D|----4--4-4-4--4-4-4--4-4-4--|  x2
A|----4--4-4-4--4-4-4--4-4-4--|
E|----2--2-0-2--2-0-2--2-0-2--|

after that play bass only .


Chorus 1 : 

e|----------------------------------------------------|
B|----------------------------------------------------|
G|----8-8-8888--8-8-8888------------------------------|
D|----9-9-9999--9-9-9999--4--4-4-4--4-4-4--4-4-4--4-4-|
A|----9-9-9999--9-9-9999--4--4-4-4--4-4-4--4-4-4--4-4-|
E|----7-7-7777--7-7-7777--2--2-0-2--2-0-2--2-0-2--2-0-|

e|-----------------------------------------|
B|-----------------------------------------|
G|----8-8-8888--8-8-8888-------------------|
D|----9-9-9999--9-9-9999--4--4-4-4---------|
A|----9-9-9999--9-9-9999--4--4-4-4--7-7/9~-|
E|----7-7-7777--7-7-7777--2--2-0-2---------|

Verse riff Again 

Chorus 2 : 

Bass play : E|--7-5-7777--7-5-7777--2--2-0-2--2-0-2--||

e|-----------------------------------------|
B|-----------------------------------------|
G|----8-8-8888--8-8-8888-------------------|
D|----9-9-9999--9-9-9999--4--4-4-4---------|  x2 
A|----9-9-9999--9-9-9999--4--4-4-4--7-7/9~-|
E|----7-7-7777--7-7-7777--2--2-0-2---------|

e|------------------|
B|------------------|
G|--6-6---/9--------|
D|--6-6---/9---4~~--|
A|--4-4---/7---4~~--|
E|-------------2~~--|

bass play  verse riff again 

Chorus 2 :

e|-----------------------------------------|
B|-----------------------------------------|
G|----8-8-8888--8-8-8888-------------------|
D|----9-9-9999--9-9-9999--4--4-4-4---------|  x2 
A|----9-9-9999--9-9-9999--4--4-4-4--7-7\9~-|
E|----7-7-7777--7-7-7777--2--2-0-2---------|

e|------------------|
B|------------------|
G|--6-6---/9--------|
D|--6-6---/9---4~~--|
A|--4-4---/7---4~~--|
E|-------------2~~--|

e|------------------|
B|------------------|
G|--9-9---\6--------|
D|--9-9---\6---4~~--|
A|--7-7---\4---4~~--|
E|-------------2~~--|
bass play verse riff 

Chorus :


e|------------------------|
B|------------------------|
G|----8-8-8888--8-8-8888--|
D|----9-9-9999--9-9-9999--|  x2
A|----9-9-9999--9-9-9999--|
E|----7-7-7777--7-7-7777--|

e|--------------------------------|
B|--------------------------------|
G|--------------------------------|
D|--4--4-4-4--4-4-4--4-4-4--4-4-4-|  x2
A|--4--4-4-4--4-4-4--4-4-4--4-4-4-|
E|--2--2-0-2--2-0-2--2-0-2--2-0-2-|

e|-----------------------------------------|
B|-----------------------------------------|
G|----8-8-8888--8-8-8888-------------------|
D|----9-9-9999--9-9-9999--4--4-4-4---------|
A|----9-9-9999--9-9-9999--4--4-4-4--7-7\9~-|
E|----7-7-7777--7-7-7777--2--2-0-2---------|

e|------------------------|
B|------------------------|
G|----8-8-8888--8-8-8888--|
D|----9-9-9999--9-9-9999--|
A|----9-9-9999--9-9-9999--|
E|----7-7-7777--7-7-7777--|

END SONG ON :

D|--4b~~4b~~4b~~4b~~4b~~--||
A|--4b~~4b~~4b~~4b~~4b~~--||  x2
E|--2b~~2b~~2b~~2b~~2b~~--||


ENJOY ! Please subscribe and comments .

Create by Alex_Kov
Tap to rate this tab
# A B C D E F G H I J K L M N O P Q R S T U V W X Y Z