Guitaretab - guitar tabs
Song name
# A B C D E F G H I J K L M N O P Q R S T U V W X Y Z

The Black Angels - Dreaming People tab

=-----------------=
2. Dreaming
=-----------------=

(from r18)

Tabbed by:Ryan Kozicki
Email:rydeen@gmail.com

Tuning: C G C F A D
===============================================================================

| /  slide up
| \  slide down
| h  hammer-on
| p  pull-off
| ~  vibrato
| +  harmonic
| x  Mute note
===============================================================================
Intro

|-------------------------------------|
|-------------------------------------|
|-------------------------------------| X 11
|-14-0-0-0-13-0-0-0-12-0-0-0-11-0-0-0-|
|-------------------------------------|
|-------------------------------------|

|---------------------------------|
|---------------------------------|
|---------------------------------|
|---------------------------------|
|---------------------------------|
|-8-8-8-8-/12--8-8-8-8-/12--------|


Verse

|--------------------------------------|
|--------------------------------------|
|--------------------------------------|
|-14-0-0-0-13-0-0-0-12-0-0-0-11-0-0-0--| X 7
|-14-0-0-0-13-0-0-0-12-0-0-0-11-0-0-0--|
|-14-0-0-0-13-0-0-0-12-0-0-0-11-0-0-0--|

|---------------------------------|
|---------------------------------|
|---------------------------------|
|---------------------------------|
|---------------------------------|
|-8-8-8-8-/12--8-8-8-8-/12--------|

|---------------------|
|---------------------|
|---------------------|
|-14-0-13-0-12-0-11-0-| X 7 Palmed
|-14-0-13-0-12-0-11-0-|
|-14-0-13-0-12-0-11-0-|

|---------------------------------|
|---------------------------------|
|---------------------------------|
|---------------------------------|
|---------------------------------|
|-8-8-8-8-/12---/12-/12-/12-------|

Chorus

|---------------------------------|
|---------------------------------|
|-----------------8----8----------|
|-0----0--5----5--8----8--4--5-7--|
|-0----0--5----5--6----6--4--5-7--|
|-0----0--5----5----------4--5-7--|

|-----------------------------------|
|-----------------------------------|
|-----------------8----8------------|
|-0----0--5----5--8----8--11-12-14--|
|-0----0--5----5--6----6--11-12-14--|
|-0----0--5----5----------9--10-12--|

Verse

|--------------------------------------|
|--------------------------------------|
|--------------------------------------|
|-14-0-0-0-13-0-0-0-12-0-0-0-11-0-0-0--| X 7
|-14-0-0-0-13-0-0-0-12-0-0-0-11-0-0-0--|
|-14-0-0-0-13-0-0-0-12-0-0-0-11-0-0-0--|

|---------------------------------|
|---------------------------------|
|---------------------------------|
|---------------------------------|
|---------------------------------|
|-8-8-8-8-/12--8-8-8-8-/12--------|

|---------------------|
|---------------------|
|---------------------|
|-14-0-13-0-12-0-11-0-| X 7 Palmed
|-14-0-13-0-12-0-11-0-|
|-14-0-13-0-12-0-11-0-|

|---------------------------------|
|---------------------------------|
|---------------------------------|
|---------------------------------|
|---------------------------------|
|-8-8-8-8-/12---/12-/12-/12-------|

Chorus

|---------------------------------|
|---------------------------------|
|-----------------8----8----------|
|-0----0--5----5--8----8--4--5-7--|
|-0----0--5----5--6----6--4--5-7--|
|-0----0--5----5----------4--5-7--|

|-----------------------------------|
|-----------------------------------|
|-----------------8----8------------|
|-0----0--5----5--8----8--11-12-14--|
|-0----0--5----5--6----6--11-12-14--|
|-0----0--5----5----------9--10-12--|

Bridge

|-----------------------------------------|
|-----------------------------------------|
|-----------------------------------------|
|-5--7-7-7-7-7-7-5---1--3-3-3-3-3-3-1-----|
|-5--5-5-5-5-5-5-5---1--1-1-1-1-1-1-1-----|
|-5--5-5-5-5-5-5-5---1--1-1-1-1-1-1-1-----|






-----------------------------------------|
-----------------------------------------|
-----------------------------------------|
-3--5-5-5-5-5-5-3---7--7--7-7-7--7-7-7-7-|
-3--3-3-3-3-3-3-3------------------------|
-3--3-3-3-3-3-3-3---5--5--5-5-5--5-5-5-5-|

Solo
[ Tab from: http://www.guitaretab.com/t/the-black-angels/72225.html ]
|--------------------------------------------------------------------------|
|----------13-15-16-18----16-16-16p-15-13----------------------------------|
|-12-14-15-14-15-17-19----17-17-17p-15-14-15-14----19-19-19-19-19-19-19-19-|X2
|-----------------------------------------17-15----------------------------|
|--------------------------------------------------17-17-17-17-17-17-17-17-|
|--------------------------------------------------------------------------|

|-17-17-17-17-17-17-17-17--15-15-15-15-15-15-15-15-|
|-15-15-15-15-15-15-15-15--15-15-15-15-15-15-15-15-|
|--------------------------------------------------|X 3
|--------------------------------------------------|
|--------------------------------------------------|
|--------------------------------------------------|

-15-15-15-15-15-15-15-15--14-14-14-14-14-14-14-14-|
-15-15-15-15-15-15-15-15--15-15-15-15-15-15-15-15-|
--------------------------------------------------|
--------------------------------------------------|
--------------------------------------------------|
--------------------------------------------------|

|-17-17-17-17-17-17-17-17--15-15-15-15-15-15-15-15-|
|-15-15-15-15-15-15-15-15--15-15-15-15-15-15-15-15-|
|--------------------------------------------------|X 3
|--------------------------------------------------|
|--------------------------------------------------|
|--------------------------------------------------|


-15-15-15-15-15-15-15-15--14-|
-15-15-15-15-15-15-15-15--15-|
-----------------------------|
-----------------------------|
-----------------------------|
-----------------------------|

Verse

|--------------------------------------|
|--------------------------------------|
|--------------------------------------|
|-14-0-0-0-13-0-0-0-12-0-0-0-11-0-0-0--| X 7
|-14-0-0-0-13-0-0-0-12-0-0-0-11-0-0-0--|
|-14-0-0-0-13-0-0-0-12-0-0-0-11-0-0-0--|

|---------------------------------|
|---------------------------------|
|---------------------------------|
|---------------------------------|
|---------------------------------|
|-8-8-8-8-/12--8-8-8-8-/12--------|

|---------------------|
|---------------------|
|---------------------|
|-14-0-13-0-12-0-11-0-| X 7 Palmed
|-14-0-13-0-12-0-11-0-|
|-14-0-13-0-12-0-11-0-|

|---------------------------------|
|---------------------------------|
|---------------------------------|
|---------------------------------|
|---------------------------------|
|-8-8-8-8-/12---/12-/12-/12-------|

Chorus

|---------------------------------|
|---------------------------------|
|-----------------8----8----------|
|-0----0--5----5--8----8--4--5-7--|
|-0----0--5----5--6----6--4--5-7--|
|-0----0--5----5----------4--5-7--|

|-----------------------------------|
|-----------------------------------|
|-----------------8----8------------|
|-0----0--5----5--8----8--11-12-14--|
|-0----0--5----5--6----6--11-12-14--|
|-0----0--5----5----------9--10-12--|


Outro Verse (play it X 3)

|------------------------------------------------------------------|
|------------------------------------------------------------------|
|------------------------------------------------------------------|
|------------------------------------------------------------------|
|------------------------------------------------------------------|
|-0-0-0-0-0-0-0-0-0-0-0-0-0-0-0-0--5-5-5-5-5-5-5-5-5-5-5-5-5-5-5-5-|


|-----------------------------------------------------------|
|-----------------------------------------------------------|
|-----------------------------------------------------------|
|----------------------------------11-11-11-11-11-11--12-12-|
|-6-6-6-6-6-6-6-6-6-6-6-6-6-6-6-6---9--9--9--9--9--9--10-10-|
|-----------------------------------------------------------|

-------------------------|
-------------------------|
-------------------------|
-------------------------|
-14-14-14-14-14-14-14-14-|
-12-12-12-12-12-12-12-12-|

Outro

|---------------------|
|---------------------|
|---------------------|
|-14-0-13-0-12-0-11-0-| X 7 Pamlmed
|-14-0-13-0-12-0-11-0-|
|-14-0-13-0-12-0-11-0-|

|---------------------------------|
|---------------------------------|
|---------------------------------|
|---------------------------0-----|
|---------------------------0-----|
|-8-8-8-8-/12---/12-/12-/12-0-----|

The end



Related for Dreaming People tab