Guitaretab - guitar tabs
Song name
# A B C D E F G H I J K L M N O P Q R S T U V W X Y Z

The Black Angels - Sniper At The Gates Of Heaven tab

Sniper at the Gates of Heavan
by: The Black Angels
Listen to the song for repition, bending, and timing details.

E|------------------------------|-------------------------------|
B|------------------------------|-----3----------3-5-6-6^6^6^6^-|
G|--3---4----3---4----3---4-----|-3--4--4---3--4----------------|
D|------------------------------|-------------------------------|
A|------------------------------|-------------------------------|
E|------------------------------|-------------------------------|


E|------------------------------|----------------------|
B|-6^6^6-6-5-3-3-3-3------------|----------------------|
G|------------------------------|-3-4-3-4-3-4----------|
D|------------------------------|-------------2-2-2----|
A|------------------------------|----------------------|
E|------------------------------|----------------------|

                                     Where do you go when heaven calls you.
E|-5/12^----------10-----------10-------|----------------------------------|
B|-------12-11-12----12-11-12-----------|------------------------3-----3---|
G|--------------------------------12^---|3-4-4--3-4-4--3-4-4--3-4--4-3----3|
D|--------------------------------------|----------------------------------|
A|--------------------------------------|----------------------------------|
E|--------------------------------------|----------------------------------|
[ Tab from: http://www.guitaretab.com/t/the-black-angels/87563.html ]
Waht do you do, who do you talk to. How old will you be when they finally catch you
E|----------------------------|-5/12^----------10-----------10-------|
B|-----3-3-3-3/5-6-6^6^6^6^6^-|-------12-11-12----12-11-12-----------|
G|-3h4------------------------|--------------------------------12^---|
D|----------------------------|--------------------------------------|
A|----------------------------|--------------------------------------|
E|----------------------------|--------------------------------------|

Dont stop movin, they're right behind you.

E|-5/12^----------10----------10---15-15^-15-|
B|-------12-11-12----12-11-12----------------|
G|-------------------------------------------|
D|-------------------------------------------|
A|-------------------------------------------|
E|-------------------------------------------|


Chorus: The guitar player uses a very distorted guitart pedal and it makes it a little 
to pick up exactly how its played, but I believe it's something like this
E|--------------------------------|
B|--------------------------------|
G|-3/4-4-4--3/4-4-4--3/4-4-4------|
D|-1/2-2-2--1/2-2-2--1/2-2-2------|
A|--------------------------------|
E|--------------------------------|

Thats all the way up to the first chorus. If you want the resat of the song just let me 
and I'll tab it out for you. Questions, Comments, Corrections to mac9641@gmail.com

ENJOY~
Related for Sniper At The Gates Of Heaven tab