The Black Atlantic - Madagascar tab

The Black Atlantic
Madagascar

Capo Third fret
Tuning: EGBDGE

I used this video as a reference:
http://www.youtube.com/watch?v=6sn783nSnvI


Intro:
E--------------------------------|
G-0---3--------------------------|
B-0---------0-------0------------|
D---0---2/4---4-----0------------|
G---------------5/7--------------|
E---------------------5h7-5/3-3--|

--------------------------------|
-0---3--------------------------|
-0---------0-------0------------|
---0---2/4---4-----0------------|
---------------5/7--------------|
---------------------5h7-3------|

For the Album version he plays 
the intro as the verse, but 
sometimes live he plays this:

Verse:
-------------------------------|
-0---3-------------------------|
-0---------0-----0-------------|
---0---2/4-------0-------------|
-------------5/7---------------|
---------------------5h7-5/3-3-|

-------------------------------|
-0---3-------------------------|
-0---------0-----0-------------|
---0---2/4-------0-------------|
-------------5/7---------------|
---------------------5h7-3-----|


Chorus:
-------------------------------|
-0--0-0---0-0--0-0---0---------|
-0--0-0---0-0--0-0---0---------|
-7--7-7/9-9-5--5-5/7-7-0---0---|
-7--7-7/9-9-5--5-5/7-7-0---0---|
-----------------------3/5-5/7-|

-------------------------------|
-0--0-0---0-0--0-0---0---------|
-0--0-0---0-0--0-0---0-0-------|
-7--7-7/9-9-5--5-5/7-7-5-------|
-7--7-7/9-9-5--5-5/7-7-0-------|
-----------------------3-------|

Interlude solo thang:
He plays this on the higher part
of the fret board, but I tabbed
this for those of you without 
cuttaway acoustics, it'd be 
kinda hard to get your fingers 
that high without the cutaway ;)

---------------------------------|
-8/10----------------------------|
-0------11---12---7/9---7---4--0-|
-0----0----0----0-----0---0------|
---------------------------------|
---------------------------------|

---------------------------------|
-8/10----------------------------|
-0------11---12---7/9---7---4~---|
-0----0----0----0-----0---0------|
---------------------------------|
---------------------------------|

---------------------------------|
-8/10----------------------------|
-0------11---12---7/9---7---4--0-|
-0----0----0----0-----0---0------|
---------------------------------|
---------------------------------|

---------------------------------|
-8/10----------------------------|
-0------11---12---7/9---7---0----|
-0----0----0----0-----0---0------|
---------------------------------|
---------------------------------|

Then right back to the chorus :)

Then he ends with a slightly 
variated chorus:
---------------------------------|
-0--0---0-0--0---0---------------|
-0--0---0-0--0---0---------------|
-7--7/9-9-5--5/7-7-0---0----0-0--|
-7--7/9-9-5--5/7-7-0---0----0-0--|
-------------------3/5-5/7--7-7--|

---------------------------|
-0--0---0-0--0---0---------|
-0--0---0-0--0---0-0-------|
-7--7/9-9-5--5/7-7-5-------|
-7--7/9-9-5--5/7-7-0-------|
-------------------3-------|
Tap to rate this tab
 
# A B C D E F G H I J K L M N O P Q R S T U V W X Y Z