Song name
# A B C D E F G H I J K L M N O P Q R S T U V W X Y Z

The Black Belles - Charlene Ii Im Over You tab

-------------------------------------------------------------------------------
			     CHARLENE II (I'M OVER YOU) - The Black Belles and Stephen Colbert
-------------------------------------------------------------------------------
Tabbed by: W35r3nn3r
Email: w35r3nn3r@gmail.com

Tuning: Standard

I heard this great song on The Colbert Report, and saw that there was no tab for it, so 
I took the time to learn it by ear to share with everyone on UG. Enjoy!

Main Riff:

e|------------------------------------------------------------------------------|
B|-o-----------------------------------------------------------o----------------|
G|--------------------2---------------------------------------------------------|
D|--2---2-2-4h5p2--------5--4h5p4p2--2-2---4h5----------------------------------|
A|-o--------------------------------------------2-----2---5----o----------------|
E|------------------------------------------------------------------------------|

Pre-Chorus:

e|---------------------------------------------------------------------------|
B|---------------------------------------------------------------------------|
G|---------------------------------------------------------------------------|
D|---------------------------------------------------------------------------|
A|---------------------------------------------------------------------------|
E|------5------5---3-5---0----3h5--------------------------------------------|

Chorus:

e|---------------------------------------------------------------------------|
B|--o-----------------------------------------------------------o------------|
G|---------------------------------------------------------------------------|
D|-----5---5--------7---7--------2------2------2------2----------------------|
A|--o--5---5--------7---7--------2------2------2------2---------o------------|
E|-----3---3--------5---5--------0------0------0------0----------------------|

e|---------------------------------------------------------------------------|
B|---------------------------------------------------------------------------|
G|------------------------------------------7---7----------------------------|
D|----5---5---------7---7-------9---9-------7---7-------5---5------7---7-----|
A|----5---5---------7---7-------9---9-------5---5-------5---5------7---7-----|
E|----3---3---------5---5-------7---7-------------------3---3------5---5-----|

e|---------------------------------------------------------------------------|
B|---------------------------------------------------------------------------|
G|---------------------------------------------------------------------------|
D|---2------2------2------2--------------------------------------------------|
A|---2------2------2------2--------------------------------------------------|
E|---0------0------0------0--------------------------------------------------|

Pre-Solo:

e|---------------------------------------------------------------------------|
B|-o--------------------------------------------o----------------------------|
G|---------------------------------------------------------------------------|
D|---2---2----------------------2---2----------------------------------------|
A|-o-2---2----------------------2---2-----------o----------------------------|
E|---0---0----------------------0---0----------------------------------------|

Solo:

e|-------12---12--------14b-(15)r14---12---10------10------------------------|
B|--o------------------------------------------12-----10----12--10---------o-|
G|----------------------------------------------------------------12--11--9--|
D|---------------------------------------------------------------------------|
A|--o----------------------------------------------------------------------o-|
E|---------------------------------------------------------------------------|

e|---------------------------------------------------------------------------|
B|--o---------------------------------------------------------------------o--|
G|---------9--9-10b(11)--9---7-----------------------------------------------|
D|----------------------------9--7-------------------------------------------|
A|--o--------------------------------7b(8)--------------------------------o--|
E|---------------------------------------------------------------------------|

e|---12---12---14b(15)r--12-10-----10--------------10-12---------------------|
B|----------------------------12------12---10-12-----------------------------|
G|---------------------------------------------------------------------------|
D|---------------------------------------------------------------------------|
A|---------------------------------------------------------------------------|
E|---------------------------------------------------------------------------|

Play the parts in this order:
Main Riff
Pre-chorus
Chorus
Main Riff
Pre-chorus
Chorus
Pre-solo
Solo
Chorus

theblackbelles.com

************************************

| /   slide up
| \   slide down
| h   hammer-on
| p   pull-off
| ~   vibrato
| +   harmonic
| x   Mute note
| b   Bend
| pb  Pre-bend
| br  Bend release
| pbr Pre-bend release
| brb Bend release bend

************************************
Tap to rate this tab
 
# A B C D E F G H I J K L M N O P Q R S T U V W X Y Z