Song name
# A B C D E F G H I J K L M N O P Q R S T U V W X Y Z

The Black Box Revelation - Set Your Head On Fire tab

Intro:


E:-------------2-2----2-2----2-2--2-2----2-2----2-2--|
B:-------------2-5^2--2-4^2--2-2--2-5^2--2-4^2--2-2--|
G:----4--2-------------------------------------------|
D:--4-4--2-4-----------------------------------------|
A:--4-2--0-4-----------------------------------------|
E:--2------2-----------------------------------------|


E:-------------2-2----2-2----2-2--2-2----2-2--5-5-5--|
B:-------------2-5^2--2-4^2--2-2--2-2----2-2--2-2-2--|
G:----4--2-------------------------------------------|
D:--4-4--2-4-----------------------------------------|
A:--4-2--0-4-----------------------------------------|
E:--2------2-----------------------------------------|


the rest is quiet the same, pre-chorus= B5     chorus= A5 and F#5

play it rough and with a lot of overdrive
Tap to rate this tab
 
# A B C D E F G H I J K L M N O P Q R S T U V W X Y Z