Guitaretab - guitar tabs
Song name
# A B C D E F G H I J K L M N O P Q R S T U V W X Y Z

The Black Box Revelation - Fighting With The Truth tab

Intro:

E|-------------------------------------------------------------------------|
B|-------------------------------------------------------------------------|
G|--------5-5-5-5---------7-7-7-7---------5-5-5-5--------------------------|
D|-7-7-7--5-5-5-5--5-5-5--7-7-7-7--7-7-7--5-5-5-5--5-5--3-3----------------|
A|-7-7-7--3-3-3-3--5-5-5--5-5-5-5--7-7-7--3-3-3-3--5-5--3-3----------------|
E|-5-5-5-----------3-3-3-----------5-5-5-----------3-3--1-1----------------|

Verse:

E|-------------------------------------------------------------------------|
B|-------------------------------------------------------------------------|
G|-------------------------------------------------------------------------|
D|-7--x-x-x-x-x--5-5--7--x-x-x-x-x--5-5--7--x-x-x-x-x--5-5-7---------------|
A|-7--x-x-x-x-x--5-5--7--x-x-x-x-x--5-5--7--x-x-x-x-x--5-5-7---------------|
E|-5--x-x-x-x-x--3-3--5--x-x-x-x-x--3-3--5--x-x-x-x-x--3-3-5---------------|

Chorus:
[ Tab from: http://www.guitaretab.com/t/the-black-box-revelation/192516.html ]
E|-------------------------------------------------------------------------|
B|-------------------------------------------------------------------------|
G|--------5-5-5-5---------7-7-7-7---------5-5-5-5--------------------------|
D|-7-7-7--5-5-5-5--5-5-5--7-7-7-7--7-7-7--5-5-5-5--5-5--3-3----------------|
A|-7-7-7--3-3-3-3--5-5-5--5-5-5-5--7-7-7--3-3-3-3--5-5--3-3----------------|
E|-5-5-5-----------3-3-3-----------5-5-5-----------3-3--1-1----------------|

Solo:

Gewoon improviseren in de pentatonische toonladder.
Live doet hij altijd iets anders, maar op de cd begint hij op de 7de fred van de D-snaar

Outro:

E|-------------------------------------------------------------------------|
B|-------------------------------------------------------------------------|
G|-------------------------------------------------------------------------|
D|-7-7-7-7--7-7-7-7--7-7-7-7--7-7-7-7--------------------------------------|
A|-7-7-7-7--7-7-7-7--7-7-7-7--7-7-7-7--------------------------------------|
E|-5-5-5-5--5-5-5-5--5-5-5-5--5-5-5-5--------------------------------------|

Volgorde:

Intro x2
Verse
Intro x2
Verse
Inro x2
Verse
Chorus x2
Solo
Chorus x6
Outro
Related for Fighting With The Truth tab