Song name
# A B C D E F G H I J K L M N O P Q R S T U V W X Y Z

The Black Box Revelation - Do I Know You tab

----------------------------------------------------------------------------|
--------------- Do I Know You - The Black Box Revelation -------------------|
----------------------------------------------------------------------------|

This is the new song of The Black Box Revelation. The only way to get it is to download 
song on http://www.blackboxrevelation.com/musicforlife
You can download the song for 2 euros at least. If you download the song, you'll support 
Music For Life.

DOWNLOAD 'DO I KNOW YOU' AND SUPPORT MUSIC FOR LIFE !!!!

Verse

E|--------------------------|
B|--------------------------|
G|--------5-----------------|
D|--2--2--5--7--7--5--7--5--|
A|--2--2--3--7--7--5--7--5--|
E|--0--0-----5--5--5--5--5--|

Chorus

E|------------------------------------------------------------------|
B|------------------------------------------------------------------|
G|---------9-9-9-9-9-9--5-5-5-5--7-7-7-7-7-7--12-12-12-12--7-7-7-7--|
D|--2-2-2--9-9-9-9-9-9--5-5-5-5--7-7-7-7-7-7--12-12-12-12--7-7-7-7--|
A|--2-2-2--7-7-7-7-7-7--3-3-3-3--5-5-5-5-5-5--10-10-10-10--5-5-5-5--|
E|--0-0-0-----------------------------------------------------------|


STOP MALARIA

EN LAAT DE WERELD NIET IN DE STEEK

STUDIO BRUSSEL
MUSIC FOR LIFE

BEZOEK SOFIE SISKA EN SAM IN HET GLAZEN HUIS, GENT
Tap to rate this tab
# A B C D E F G H I J K L M N O P Q R S T U V W X Y Z