Song name
# A B C D E F G H I J K L M N O P Q R S T U V W X Y Z

The Black Box Revelation - I Dont Want It tab

The Black Box Revelation - I Don't Want It
                          (Album: Set Your Head On Fire)

Intro:

E|---------------------------------------------------------| 
B|---------------------------------------------------------| 
G|---------------------------------------------------------| 
D|-7--x--x--7--7--x--x--7-7-7--5--x--x--5--5--x--x--5-5-5--| 
A|-7--x--x--7--7--x--x--7-7-7--5--x--x--5--5--x--x--5-5-5--| 
E|-5--x--x--5--5--x--x--5-5-5--3--x--x--3--3--x--x--3-3-3--|
                                                             
E|---------------------------------------------------------| 
B|---------------------------------------------------------| 
G|-7--x--x--7--7--7--5-5-----------------------------------| 
D|-7--x--x--7--7--7--5-5--7--x--x--7--7--7--5-5------------| 
A|-5--x--x--5--5--5--3-3--7--x--x--7--7--7--5-5------------| 
E|------------------------5--x--x--5--5--5--3-3------------| 
                                                 If you
Verse 1:

E|---------------------------------------------------------| 
B|---------------------------------------------------------| 
G|---------------------------------------------------------| 
D|-7--x--x--7--7--x--x--7-7-7--5--x--x--5--5--x--x--5-5-5--| 
A|-7--x--x--7--7--x--x--7-7-7--5--x--x--5--5--x--x--5-5-5--| 
E|-5--x--x--5--5--x--x--5-5-5--3--x--x--3--3--x--x--3-3-3--|
   Want to tell me something that I, I need to know, tell me         
E|---------------------------------------------------------| 
B|---------------------------------------------------------| 
G|-7--x--x--7--7--7--5-5-----------------------------------| 
D|-7--x--x--7--7--7--5-5--7--x--x--7--7--7--5-5------------| 
A|-5--x--x--5--5--5--3-3--7--x--x--7--7--7--5-5------------| 
E|------------------------5--x--x--5--5--5--3-3------------| 
      now             Ri-i-ight now             I wanna

E|---------------------------------------------------------| 
B|---------------------------------------------------------| 
G|---------------------------------------------------------| 
D|-7--x--x--7--7--x--x--7-7-7--5--x--x--5--5--x--x--5-5-5--| 
A|-7--x--x--7--7--x--x--7-7-7--5--x--x--5--5--x--x--5-5-5--| 
E|-5--x--x--5--5--x--x--5-5-5--3--x--x--3--3--x--x--3-3-3--|
   Hear     it,   hear it      tell it to my ears   owohow
E|---------------------------------------------------------| 
B|---------------------------------------------------------| 
G|-7--x--x--7--7--7--5-5-----------------------------------| 
D|-7--x--x--7--7--7--5-5--7--7--7--5-7--7--5-5-------------|
A|-5--x--x--5--5--5--3-3--7--7--7--5-7--7--5-5-------------|
E|------------------------5--5--5--5-5--5--3-3-------------|
                     Tell it to my ears!

Chorus:

E|---------------------------------------------------------|
B|---------------------------------------------------------|
G|---------------------------------------------------------|
D|-7--7--7-5-7--7--7-7-7--5--5--5-3-5--5--5-5-5------------|
A|-7--7--7-5-7--7--7-7-7--5--5--5-3-5--5--5-5-5------------|
E|-5--5--5-5-5--5--5-5-5--3--3--3-3-3--3--3-3-3------------|
You dont have to call me by my name You dont have to treat me like yr friend

E|---------------------------------------------------------|
B|---------------------------------------------------------|
G|-7--7--7-5-7--7--5-5-------------------------------------|
D|-7--7--7-5-7--7--5-5--7--7--7-5-7--7--5-5----------------|
A|-5--5--5-5-5--5--3-3--7--7--7-5-7--7--5-5----------------|
E|----------------------5--5--5-5-5--5--3-3----------------|
  I don't want it don't want it I don't wa-a-ant it

Verse 2:

E|---------------------------------------------------------| 
B|---------------------------------------------------------| 
G|---------------------------------------------------------| 
D|-7--x--x--7--7--x--x--7-7-7--5--x--x--5--5--x--x--5-5-5--| 
A|-7--x--x--7--7--x--x--7-7-7--5--x--x--5--5--x--x--5-5-5--| 
E|-5--x--x--5--5--x--x--5-5-5--3--x--x--3--3--x--x--3-3-3--|
                                                             
E|---------------------------------------------------------| 
B|---------------------------------------------------------| 
G|-7--x--x--7--7--5-7-5-7-7b-7-5-------5-5-7-5-7b-7-5-5-7--|
D|-7--x--x--7--7-----------------7-5-7---------------------|
A|-5--x--x--5--5-------------------------------------------|
E|---------------------------------------------------------|
                                                           Now you've

E|---------------------------------------------------------| 
B|---------------------------------------------------------| 
G|---------------------------------------------------------| 
D|-7--x--x--7--7--x--x--7-7-7--5--x--x--5--5--x--x--5-5-5--| 
A|-7--x--x--7--7--x--x--7-7-7--5--x--x--5--5--x--x--5-5-5--| 
E|-5--x--x--5--5--x--x--5-5-5--3--x--x--3--3--x--x--3-3-3--|
   Said enough, so now I want you to disappear      Don't you
                                                             
E|---------------------------------------------------------| 
B|---------------------------------------------------------| 
G|-7--x--x--7--7--7--5-5-----------------------------------| 
D|-7--x--x--7--7--7--5-5--7--x--x--7--7--7--5-5------------| 
A|-5--x--x--5--5--5--3-3--7--x--x--7--7--7--5-5------------| 
E|------------------------5--x--x--5--5--5--3-3------------| 
  call me            Don't you ca-a-all me        But I

E|---------------------------------------------------------| 
B|---------------------------------------------------------| 
G|---------------------------------------------------------| 
D|-7--x--x--7--7--x--x--7-7-7--5--x--x--5--5--x--x--5-5-5--| 
A|-7--x--x--7--7--x--x--7-7-7--5--x--x--5--5--x--x--5-5-5--| 
E|-5--x--x--5--5--x--x--5-5-5--3--x--x--3--3--x--x--3-3-3--|
   Know     That you will call me after a-all         You're gonna

E|---------------------------------------------------------| 
B|---------------------------------------------------------| 
G|-7--x--x--7--7--7--5-5-----------------------------------| 
D|-7--x--x--7--7--7--5-5--7--7--7--5-7--7--5-5-------------|
A|-5--x--x--5--5--5--3-3--7--7--7--5-7--7--5-5-------------|
E|------------------------5--5--5--5-5--5--3-3-------------|
  Ring me             Off The Wa - a - a - all


Chorus:

E|---------------------------------------------------------|
B|---------------------------------------------------------|
G|---------------------------------------------------------|
D|-7--7--7-5-7--7--7-7-7--5--5--5-3-5--5--5-5-5------------|
A|-7--7--7-5-7--7--7-7-7--5--5--5-3-5--5--5-5-5------------|
E|-5--5--5-5-5--5--5-5-5--3--3--3-3-3--3--3-3-3------------|
You dont have to call me by my name You dont have to treat me like yr friend

E|---------------------------------------------------------|
B|---------------------------------------------------------|
G|-7--7--7-5-7--7--5-5-------------------------------------|
D|-7--7--7-5-7--7--5-5--7--7--7-5-7--7--5-5----------------|
A|-5--5--5-5-5--5--3-3--7--7--7-5-7--7--5-5----------------|
E|----------------------5--5--5-5-5--5--3-3----------------|
  I don't want it don't want it I don't wa-a-ant it

E|---------------------------------------------------------|
B|---------------------------------------------------------|
G|---------------------------------------------------------|
D|-7--7--7-5-7--7--7-7-7--5--5--5-3-5--5--5-5-5------------|
A|-7--7--7-5-7--7--7-7-7--5--5--5-3-5--5--5-5-5------------|
E|-5--5--5-5-5--5--5-5-5--3--3--3-3-3--3--3-3-3------------|
You dont have to call me by my name You dont have to treat me like yr friend

E|---------------------------------------------------------|
B|---------------------------------------------------------|
G|-7--7--7-5-7--7--5-5-------------------------------------|
D|-7--7--7-5-7--7--5-5--7--7--7-5-7--7--5-5----------------|
A|-5--5--5-5-5--5--3-3--7--7--7-5-7--7--5-5----------------|
E|----------------------5--5--5-5-5--5--3-3----------------|
  I don't want it don't want it I don't wa-a-ant it

Solo:

E|---------------------------------------------------------|
B|---------------------------------------------------------|
G|--------5-7-5---5----------------------------------------|
D|----5-7-------7---7-5-------------5---5---5--------------|
A|----------------------7-------5-7---7---7---7------------|
E|-5-------------------------3-----------------------------|

E|---------------------------------------------------------|
B|---------------------------------------------------------|
G|--------5-----5-----5-----5-----5-7-5--------------------|
D|----5h7---5h7---5h7---5h7---5h7-------7-5----------------|
A|-5-------------------------------------------------------|
E|---------------------------------------------------------|

E|---------------------------------------------------------|
B|---------------------------------------------------------|
G|---------------------------5-----------------------------|
D|-----------------------------7---------------5-----------|
A|---------------------------------------------------------|
E|-5-------------------------------------------------------|

E|-----------------8-8-8--5-5-5----------------------------|
B|------------5-5------------------------------------------|
G|--------5-7----------------------------------------------|
D|----5-7--------------------------------------------------|
A|---------------------------------------------------------|
E|-5-------------------------------------------------------|

E|---------------------------------------------------------|
B|---------------------------------------------------------|
G|------------5-7-5----------------------------------------|
D|--------5-7--------7-------------------------------------|
A|----5-7--------------------------------------------------|
E|-3-------------------------------------------------------|

E|---------------------------------------------------------|
B|---------------------------------------------------------|
G|--------5-----7-----5b-5-----5b--------------------------|
D|----5h7---5h7---5h7-------------7------------------5-----|
A|-5-------------------------------------------------------|
E|--------------------------5------------------------------|

E|---------------------------------------------------------|
B|---------------------------------------------------------|
G|----------------17-19b-19-17-19-17-----------------------|
D|----------17-19--------------------19-17-----------------|
A|----17-19------------------------------------------------|
E|-5-------------------------------------------------------|

E|---------------------------------------------------------|
B|---------------------------------------------------------|
G|------------5b---5b--------------------------------------|
D|--------5-7----7----7-5----------------------------------|
A|----5-7--------------------------------------------------|
E|-3-------------------------------------------------------|

E|------------------------------------------------------------|
B|------------------------------------------------------------|
G|--------5-----5-----5b-5-----5b-----------------------------|
D|----5h7---5h7---5h7-------------7------------------5--------|
A|-5----------------------------------------------------------|
E|--------------------------5---------------------------------|

E|------------------------------------------------------------|
B|------------------------------------------------------------|
G|--------5-7-5-7b--7-5---------------------------------------|
D|----5-7---------------7-------------------------------------|
A|------------------------------------------------------------|
E|-5----------------------------------------------------------|

E|------------------------------------------------------------|
B|------------------------------------------------------------|
G|------------------------------------------------------------|
D|--------------------------------------s7--5-----------------|
A|------------------------------------------------------------|
E|-3----------------------------------------------------------|

E|------------------------------------------------------------|
B|------------------------------------------------------------|
G|--------5-----7-----5b-5-----5b-----------------------------|
D|----5h7---5h7---5h7-------------7------------------5--------|
A|-5----------------------------------------------------------|
E|--------------------------5---------------------------------|

Bridge:

E|------------------------------------------------------------|
B|------------------------------------------------------------|
G|------------------------------------------------------------|
D|------------------------------------------------------------|
A|------------------------------------------------------------|
E|-5----------------------------------------------------------|
      You don't have to call me              by my name

E|------------------------------------------------------------|
B|------------------------------------------------------------|
G|------------------------------------------------------------|
D|------------------------------------------------------------|
A|------------------------------------------------------------|
E|-3----------------------------------------------------------|
       You don't have to treat me         like your friend

E|------------------------------------------------------------|
B|------------------------------------------------------------|
G|------------------------------------------------------------|
D|------------------------------------------------------------|
A|-5--------------------------------5s3-----------------------|
E|-----------------------------------------------5------------|
      I don't want it don't want it       I don't wa-a-ant it

E|------------------------------------------------------------|
B|------------------------------------------------------------|
G|------------------------------------------------------------|
D|------------------------------------------------------------|
A|------------------------------------------------------------|
E|-3-5--------------------------------------------------------|
       You don't have to                     call me by my

E|------------------------------------------------------------|
B|------------------------------------------------------------|
G|------------------------------------------------------------|
D|------------------------------------------------------------|
A|------------------------------------------------------------|
E|-3----------------------------------------------------------|
   name   You don't have to                 treat my like your

E|------------------------------------------------------------|
B|------------------------------------------------------------|
G|------------------------------------7-7---------------------|
D|------------------------------------7-7--7--7--7-5-7--7--55-|
A|-5----------------------------------5-5--7--7--7-5-7--7--55-|
E|-----------------------------------------5--5--5-5-5--5--33-|
 friend  I don't want it don't want it    I don't wa-a-ant it 

 Chorus:

E|---------------------------------------------------------|
B|---------------------------------------------------------|
G|---------------------------------------------------------|
D|-7--7--7-5-7--7--7-7-7--5--5--5-3-5--5--5-5-5------------|
A|-7--7--7-5-7--7--7-7-7--5--5--5-3-5--5--5-5-5------------|
E|-5--5--5-5-5--5--5-5-5--3--3--3-3-3--3--3-3-3------------|
You dont have to call me by my name You dont have to treat me like yr friend

E|---------------------------------------------------------|
B|---------------------------------------------------------|
G|-7--7--7-5-7--7--5-5-------------------------------------|
D|-7--7--7-5-7--7--5-5--7--7--7-5-7--7--5-5----------------|
A|-5--5--5-5-5--5--3-3--7--7--7-5-7--7--5-5----------------|
E|----------------------5--5--5-5-5--5--3-3----------------|
  I don't want it don't want it I don't wa-a-ant it

E|---------------------------------------------------------|
B|---------------------------------------------------------|
G|---------------------------------------------------------|
D|-7--7--7-5-7--7--7-7-7--5--5--5-3-5--5--5-5-5------------|
A|-7--7--7-5-7--7--7-7-7--5--5--5-3-5--5--5-5-5------------|
E|-5--5--5-5-5--5--5-5-5--3--3--3-3-3--3--3-3-3------------|
You dont have to call me by my name You dont have to treat me like yr friend

E|---------------------------------------------------------|
B|---------------------------------------------------------|
G|-7--7--7-5-7--7--5-5-------------------------------------|
D|-7--7--7-5-7--7--5-5--7--7--7-5-7--7--5-5----------------|
A|-5--5--5-5-5--5--3-3--7--7--7-5-7--7--5-5----------------|
E|----------------------5--5--5-5-5--5--3-3----------------|
  I don't want it don't want it I don't wa-a-ant it

Outro:

E|---------------------------------------------------------|
B|---------------------------------------------------------|
G|---------------------------------------------------------|
D|-7-5-7--7-5-7--7-5-7-7-7--5-3-5--5-3-5--5-3-5-5-5--------|
A|-7-5-7--7-5-7--7-5-7-7-7--5-3-5--5-3-5--5-3-5-5-5--------|
E|-5-5-5--5-5-5--5-5-5-5-5--3-3-3--3-3-3--3-3-3-3-3--------|

E|---------------------------------------------------------|
B|---------------------------------------------------------|
G|-7-5-7--7-5-7-7--5-7-5-7-7b-7-5--------------------------|
D|-7-5-7--7-5-7-7-----------------7--7p5-7p5-7p5-7p5-7p5-7~|
A|-5-5-5--5-5-5-5-----------------7--7p5-7p5-7p5-7p5-7p5-7~|
E|--------------------------------5--5---5---5---5---5---5~|

E|-----|
B|-----|
G|-----|
D|--7--|
A|--7--|
E|--5--|

Song : copyright Jan Paternoster (Singer/Songwriter of The Black Box Revelation)

Tab : copyright Brecht Vandeweyer (2010)



Tap to rate this tab
 
# A B C D E F G H I J K L M N O P Q R S T U V W X Y Z