Song name
# A B C D E F G H I J K L M N O P Q R S T U V W X Y Z

The Black Box Revelation - Do I Know You tab

Standard Tuning
Have Fun met de Black Box, Do I Know You

Hij speelt bijna alles in open akkoorden buiten de 'chorus' daar gaat hij naar boven in 
nek!

Verse

! Losse/open snaren niet "echt" spelen, gewoon aanraken, ne keer over trekken... volgens 
geven ze da op tablature da aan met XXXXXXX'kes!

E|-----3-----0--0--0--0--0--|
B|--------1--2--2--0--2--0--|
G|--1--1--0--2--2--0--2--0--|
D|--2--2--2--2--2--0--2--0--|
A|--2--2--3--0--0--0--0--0--|
E|--0--0--------------------|


Chorus

E|-------------------------------0-0-0-0-0-0---------------------|
B|----------------------1-1-1-1--2-2-2-2-2-2------------4-4-4-4--|
G|--1-1-1--9-9-9-9-9-9--0-0-0-0--2-2-2-2-2-2---0-0-0-0--4-4-4-4--|
D|--2-2-2--9-9-9-9-9-9--2-2-2-2--2-2-2-2-2-2---0-0-0-0--4-4-4-4--|
A|--2-2-2--7-7-7-7-7-7--3-3-3-3--0-0-0-0-0-0---2-2-2-2--2-2-2-2--|
E|--0-0-0--0-0-0-0-0-0-------------------------3-3-3-3-----------|

Het aantal akkoorden klopt waarschijnlijk ook niet, maar het zijn wel de juiste! Het 
zoek je zelf!
Hoge (in de nek) E losse snaar hoeft niet!


Made by: zeilendeman, The Lord
Tap to rate this tab
# A B C D E F G H I J K L M N O P Q R S T U V W X Y Z