Song name
# A B C D E F G H I J K L M N O P Q R S T U V W X Y Z

The Black Box Revelation - Sleep While Moving tab

Note: This is not how Jan plays it, but it sounds alright. The lyrics may need 
some adjustments too.


Em7 022030
Dsus2 xx0230


Intro: Em7   Dsus2   C    G

Em7       Dsus2
Oh we're in NY City
C               G
4 o'clock and still not sleepin'
Em7      Dsus2
Eyes wide open in bed
  C                 G
Times that we gotta go

                 Em          C
Yeah, we gotta sleep while movin'
                 G           D
Yeah, we gotta sleep while movin'
                 Em          C
Yeah, we gotta sleep while movin'
                 G           D
Yeah, we gotta sleep while movin'


Times go 'round and 'round
I'm not tired and Dries gets bored, yeah
Wait for calls in the afternoon
breakfast at 9

Chorus

Bridge (In the bridge you've gotta find out what sounds best for you. Play around with 
strings a little bit)

|----------------------------------------------------------|
|--------------3-------------------------------------------|
|-----------0--2-------------------------------------------|
|--2--2--2--2----------------------------------------------|
|--2--2--2-------------------------------------------------|
|--0--0-----------0--5--3----------------------------------|


|---------------------------------------------------------------|
|--------------3------------------------------------------------|
|-----------0--2------------------------------------------------|
|--2--2--2--2--------------------2---5--------------------------|
|--2--2--2--------------------3----------3--2-------------------|
|--0--0-----------0--5--3---------------------3--0--------------|
                             uhuhu ...


Em7   Dsus2   C    G


Chorus
Tap to rate this tab
 
# A B C D E F G H I J K L M N O P Q R S T U V W X Y Z