Song name
# A B C D E F G H I J K L M N O P Q R S T U V W X Y Z

The Black Box Revelation - Never Alone Always Together tab

My first tab please rate it unless you think it sucks in that case just leave.

b = bend
r = release
~ = tremolo

Never alone always SOLO

E|-12-12---------------------------------------------------------------------|
B|-12-12-----------------------------------13/15-15-15-15-15-14--12 ~ -------|
G|---------14b16r14----12 ~ ---------12-14-14/16-16-16-16-16-14--12 ~--------|
D|---------------------------14-12-14----------------------------------------|
A|---------------------------------------------------------------------------|
E|---------------------------------------------------------------------------|

E|---------------------------------------------------------------------------|
B|--------------------15---------15-----------15----------15------14--12-----|
G|-----------12-14b16------r14b16------r14b16------r14b16---------14--12-----|
D|-14-12-14------------------------------------------------------------------|
A|---------------------------------------------------------------------------|
E|---------------------------------------------------------------------------|

E|-----------------------------12--------12--------12---------12-------------|
B|---------------------------------------------------------------------------|
G|-----------------12-14-14b16----r14b16----r14b16------r14b16---14-12 ~ ----|
D|-14--14-14-14-14--------------------------------------------------------14-|
A|---------------------------------------------------------------------------|
E|---------------------------------------------------------------------------|

So this is what I made of it however I think he plays something before he starts playing 
again.
Please comment if you think it could be improved.

PS. my Word version looked better
Tap to rate this tab
 
# A B C D E F G H I J K L M N O P Q R S T U V W X Y Z