Song name
# A B C D E F G H I J K L M N O P Q R S T U V W X Y Z

The Black Box Revelation - Our Town Has Changed For Years Now tab

Title: Our Town Has Changed for Years Now
Artist: The Black Box Revelation
Chords: /
Standard tuning
Part 1
e-----------------------------------------------------------------------------|
B---------------555--------000------------------------------------------------|
G ----00000-----------7-------------------------------2x----------------------|
D ------------------------------------7---55----------------------------------|
A ----------------------------------------------------------------------------|
E ----------------------------------------------------------------------------|

part 2
e-----------------------------------------------------------------------------|
B-----------------------------------------------------------------------------|
G-----------------------------------------------------------------------------|
D-----------------9----77------555------------999----777----------------2x----|
A-----5/777-------------------------------------------------------------------|
E-----------------------------------------------------------------------------|

part 3
e-------------------------------------------------------------------|
B-------------------------------------------------------------------|
G ---7--------------7-----------------------------------------------|
D ---9--------------9---------------------------------6x------------|
A ---9--------------9-----------------------------------------------|
E -------0000------------0000---------------------------------------|
       palm mute E string>>>
part 1
part 2
part 3
part 1
part2

question or correction email me at thijsvanbaalen@tiscali.nl
Tap to rate this tab
 
# A B C D E F G H I J K L M N O P Q R S T U V W X Y Z