The Black Box Revelation - Do I Know You tab

  
x losse snaar               ( 1ste tab ooit gemaakt )
               hopelijk goed voor jullie
      
    9 maal
/------------/
/-----1------/
/--------2x2x/
/--2--2--2x2x/
/--2--3--x-x-/
/--x---------/

    2 maal 
/----------1--/
/------1------/
/--------2---4/
/--14--2-2---4/
/--14--3---2-2/
/--12----x-3--/

De solo ken ik maar die zal ik later wel poosten  bedankt .

ook een s luisterern naar love licks en sleep while moving.
Tap to rate this tab
 
# A B C D E F G H I J K L M N O P Q R S T U V W X Y Z