Song name
# A B C D E F G H I J K L M N O P Q R S T U V W X Y Z

The Black Box Revelation - Kill For Peace tab

INTRO:
--------------------------------------------------|
e|------------------------------------------------|
B|---------------9b10-----------------------------|
G|---x--7b8------9b11--7-------------7777---------|
D|-7-x------7-7-------------5--5-5/7-7777-9-------|
A|-7-x------7-7-------------5--5-5/7--------------|
E|-9-x------9-9-------------3--3-3/5--------------| x2

VERSE 1: (palm muted)
------------------------------------------------------------------------|
e|----------------------------------------------------------------------|
B|----------------------------------------------------------------------|
G|----------------------------------------------------------------------|
D|---9-9-9-9-9-9-9-9-9-9-9-9-9-9-9-9--5-5-5-5-5-5-5-5--7-7-7-7-7-7-7-7--|
A|---9-9-9-9-9-9-9-9-9-9-9-9-9-9-9-9--5-5-5-5-5-5-5-5--7-7-7-7-7-7-7-7--|
E|---7-7-7-7-7-7-7-7-7-7-7-7-7-7-7-7--3-3-3-3-3-3-3-3--5-5-5-5-5-5-5-5--|  x2

INTRO VERSE 2:
--------------------------------------------------|
e|------------------------------------------------|
B|---------------9b10-----------------------------|
G|---x--7b8------9b11--7-------------7777---------|
D|-7-x------7-7-------------5--5-5/7-7777-9-------|
A|-7-x------7-7-------------5--5-5/7--------------|
E|-9-x------9-9-------------3--3-3/5--------------| x2

VERSE 2: (palm muted)
------------------------------------------------------------------------|
e|----------------------------------------------------------------------|
B|----------------------------------------------------------------------|
G|----------------------------------------------------------------------|
D|---9-9-9-9-9-9-9-9-9-9-9-9-9-9-9-9--5-5-5-5-5-5-5-5--7-7-7-7-7-7-7-7--|
A|---9-9-9-9-9-9-9-9-9-9-9-9-9-9-9-9--5-5-5-5-5-5-5-5--7-7-7-7-7-7-7-7--|
E|---7-7-7-7-7-7-7-7-7-7-7-7-7-7-7-7--3-3-3-3-3-3-3-3--5-5-5-5-5-5-5-5--|  x2

CHORUS 1:
-------------------------------------------------------------------------|
e|-----------------------------------------------------------------------|
B|-----------------------------------------------------------------------|
G|-----------------------------------------------------------------------|
D|---9-9-9-9-9-9-9-9--2-2-2-2-2-2-2-2--5-5-5-5-5-5-5-5--7-7-7-7-7-7-7-7--|
A|---9-9-9-9-9-9-9-9--2-2-2-2-2-2-2-2--5-5-5-5-5-5-5-5--7-7-7-7-7-7-7-7--|
E|---7-7-7-7-7-7-7-7--0-0-0-0-0-0-0-0--3-3-3-3-3-3-3-3--5-5-5-5-5-5-5-5--|  x2

e|--------------------------------------------------------------------------------|
B|--------------------------------------------------------------------------------|
G|--------------------------------------------------------------------------------|
D|---9----------------------------------------------------------------------------|
A|---9-----(let ring)-------------------------------------------------------------|
E|---7----------------------------------------------------------------------------|

VERSE 3: (palm muted)
------------------------------------------------------------------------|
e|----------------------------------------------------------------------|
B|----------------------------------------------------------------------|
G|----------------------------------------------------------------------|
D|---9-9-9-9-9-9-9-9-9-9-9-9-9-9-9-9--5-5-5-5-5-5-5-5--7-7-7-7-7-7-7-7--|
A|---9-9-9-9-9-9-9-9-9-9-9-9-9-9-9-9--5-5-5-5-5-5-5-5--7-7-7-7-7-7-7-7--|
E|---7-7-7-7-7-7-7-7-7-7-7-7-7-7-7-7--3-3-3-3-3-3-3-3--5-5-5-5-5-5-5-5--|  x2

CHORUS 2:
-------------------------------------------------------------------------|
e|-----------------------------------------------------------------------|
B|-----------------------------------------------------------------------|
G|-----------------------------------------------------------------------|
D|---9-9-9-9-9-9-9-9--2-2-2-2-2-2-2-2--5-5-5-5-5-5-5-5--7-7-7-7-7-7-7-7--|
A|---9-9-9-9-9-9-9-9--2-2-2-2-2-2-2-2--5-5-5-5-5-5-5-5--7-7-7-7-7-7-7-7--|
E|---7-7-7-7-7-7-7-7--0-0-0-0-0-0-0-0--3-3-3-3-3-3-3-3--5-5-5-5-5-5-5-5--|  x4

VERSE 4:
------------------------------------------------------------------------|
e|----------------------------------------------------------------------|
B|----------------------------------------------------------------------|
G|----------------------------------------------------------------------|
D|---9-9-9-9-9-9-9-9-9-9-9-9-9-9-9-9--5-5-5-5-5-5-5-5--7-7-7-7-7-7-7-7--|
A|---9-9-9-9-9-9-9-9-9-9-9-9-9-9-9-9--5-5-5-5-5-5-5-5--7-7-7-7-7-7-7-7--|
E|---7-7-7-7-7-7-7-7-7-7-7-7-7-7-7-7--3-3-3-3-3-3-3-3--5-5-5-5-5-5-5-5--|  x2

OUTRO:
------------------------------------------------------------------------|
e|----------------------------------------------------------------------|
B|----------------------------------------------------------------------|
G|----------------------------------------------------------------------|
D|---9-9-9-9-9-9-9-9-9-9-9-9-9-9-9-9--5-5-5-5-5-5-5-5--7-7-7-7-7-7-7-7--|
A|---9-9-9-9-9-9-9-9-9-9-9-9-9-9-9-9--5-5-5-5-5-5-5-5--7-7-7-7-7-7-7-7--|
E|---7-7-7-7-7-7-7-7-7-7-7-7-7-7-7-7--3-3-3-3-3-3-3-3--5-5-5-5-5-5-5-5--|  x8

e|--------------------------------------------------------------------------------|
B|--------------------------------------------------------------------------------|
G|--------------------------------------------------------------------------------|
D|---9----------------------------------------------------------------------------|
A|---9---(let ring)---------------------------------------------------------------|
E|---7----------------------------------------------------------------------------|


I corrected the intro.

Enjoy,
First tab (the intro, I figured the rest out but it's all good)
Tap to rate this tab
 
# A B C D E F G H I J K L M N O P Q R S T U V W X Y Z