The Black Box Revelation - Love Licks tab

Intro+verse

e -------------------------------------------------------------------|
B --0-1-0-----------1-0-1/3-1-0--------------------------------------|
G --------2-0------------------------0-2-2/3-2-0------2-0-2/3-2/3-0--|
D -------------------------------------------------------------------|
A --------------------------------0--------------0-------------------|
E --0---------0-3-0-------------0------------------0-----------------|

Bridge + Chorus
e ----------------------------------------------------------------------|
B -----0---0-1-0---0-1-0------------------------------------------------|
G -----0---0-0-0---0-0-0------------------------------------------------|
D -----0---0-0-0---0-0-0-------2-2-7-7-5-9----2-2-7-7-5-9---------------|
A -2---2---2-2-2---2-2-2-------2-2-7-7-5-9----2-2-7-7-5-9---------------|
E -3---3---3-3-3---3-3-3-------0-0-5-5-3-7----0-0-5-5-3-7---------------|
Tap to rate this tab
 
# A B C D E F G H I J K L M N O P Q R S T U V W X Y Z