Song name
# A B C D E F G H I J K L M N O P Q R S T U V W X Y Z

The Black Box Revelation - Do I Know You tab

Artist: The Black Box Revelation
Song: Do I Know You
Album: Silver Threats
More info: toowb@hotmail.be

Verse
Repeat until chorus
E|----X-X-X--3-----0-X-X-X-0--0--0--0--|
B|----X-X-X--0--1--2-X-X-X-2--0--2--0--|
G|--1-X-X-X--1--0--2-X-X-X-2--0--2--0--|
D|--2-X-X-X--2--2--2-X-X-X-2--0--2--0--|
A|--2-X-X-X--2--3--0-X-X-X-0--0--0--0--|
E|--0-X-X-X--0-------X-X-X-------------|


Chorus

E|-----------------------------------------------------0--|
B|---------10-10-10-10-10-10-10-10---------------1-1-1-0--|
G|--1-1-1--11-11-11-11-11-11-11-11------1-1-1-1--0-0-0-0--|
D|--2-2-2--1212-12-12-12-12-12-12------2-2-2-2--2-2-2-0--|
A|--2-2-2--1212-12-12-12-12-12-12------2-2-2-2--3-3-3-0--|
E|--0-0-0--0-0-0--0--0--0--0--0----------------------0--|

E|--0-0-0-0-0-0-0-0--3-3-3-3------------|
B|--2-2-2-2-2-2-2-2--0-0-0-0---4-4-4-4--|
G|--2-2-2-2-2-2-2-2--0-0-0-0---4-4-4-4--|
D|--2-2-2-2-2-2-2-2--0-0-0-0---4-4-4-4--|
A|--0-0-0-0-0-0-0-0--2-2-2-2---2-2-2-2--|
E|--0-0-0-0-0-0-0-0--3-3-3-2---0-0-0-0--|
Tap to rate this tab
 
# A B C D E F G H I J K L M N O P Q R S T U V W X Y Z