Song name
# A B C D E F G H I J K L M N O P Q R S T U V W X Y Z

The Black Ghosts - Full Moon tab

This is the rythm for most of the song.
I'll keep working on doing this part, wich is missing:
' Far far away, no voices sounding, no one around me and
you're still there
Far far away, no choices passing, no time confounds me and you're still there '

I'm going to put down the tab for the first part of the song as an example. the other 
are the same, except for the one I already mentioned above.


1. When the thorn bush turns white, that's when I'll come home.
2. I am going out to see what I can sew.

e--------------------------------------|
B--------------------------------------|
G-----5--7--7--7--7--5--4--------------|
D--7-----------------------7--4--7-----| [repeat twice]
A--------------------------------------|
E--------------------------------------|

1. And I don't know where I'll go,
2 .And I don't know what I'll see,

e-------------------------------------|
B-------------------------------------|
G-----5--7--7--7----------------------|
D--7--------------5--6----------------| [repeat twice]
A-------------------------------------|
E-------------------------------------|

but I'll try not to bring it back home with me.

e--------------------------------------|
B--------------------------------------|
G-----5--7--7--7--7--5--4--------------|
D--7-----------------------7--4--7-----|
A--------------------------------------|
E--------------------------------------|

I hope it sounds ok. It's my first time acctually trying to play a song by ear...
Tap to rate this tab
# A B C D E F G H I J K L M N O P Q R S T U V W X Y Z