Song name
# A B C D E F G H I J K L M N O P Q R S T U V W X Y Z

The Black Keys - Tighten Up chords

Highlighted       Show chord diagrams
Intro
F#m         E        B7       C#7
---9--9-----7-7-----7-7-----9--9-----|
---10-10----9-9-----7-7-----9--9-----|
---11-11----9-9-----8-8-----10-10----|
---11-11----9-9-----7-7-----9--9-----|
---9--9-----7-7-----9-9-----11-11----|
---x--x-----x-x-----7-7-----9--9-----|
Repeat as much as needed

Outro
Tremolo Effect

F#m            C#7              F#m         A        
   B7        C#7
---9--9--9-----9--9--9--9--X2---9--9--9-----9--9--9-----7-7-7-----9--9--9--|
---10-10-10----9--9--9--9--X2---10-10-10----10-10-10----7-7-7-----9--9--9--|
---11-11-11----10-10-10-10-X2---11-11-11----9--9--9-----8-8-8-----10-10-10-|
---11-11-11----9--9--9--9--X2---11-11-11----11-11-11----7-7-7-----9--9--9--|
---10-10-10----11-11-11-11-X2---10-10-10----12-12-12----9-9-9-----11-11-11-|
---x--x--x-----9--9--9--9--X2---x--x--x-----x--x--x-----7-7-7-----9--9--9--|Repeat as 
much as needed
Tap to rate this tab
# A B C D E F G H I J K L M N O P Q R S T U V W X Y Z