Song name
# A B C D E F G H I J K L M N O P Q R S T U V W X Y Z

The Black Keys - Stop Stop tab

-------------------------------------------------------------------------------
			     STOP, STOP - Black Keys
-------------------------------------------------------------------------------
Tabbed by: dcoc

Tuning: Standard (EADGBE)

Intro Riffs
			     	C	D#	C	A#	c
e|-------------------------|----8-------11------8-------6-------8---------------------------------|
B|-------------------------|----8-------11------8-------6-------8---------------------------------|
G|----8-10-8-10-10-10-8----|----9-------12------9-------7-------9------------8-10-10s12-10s8-10s12|
D|-10-------------------10-|x2--10------13------10------8-------10---8-10-10----------------------|
A|-------------------------|----10------13------10------8-------10--------------------------------|
E|-------------------------|----8-------11------8-------6-------8---------------------------------|

    	(F)				(A#)
e|----------------------------------------------------------------------|
B|----------------------------------------------------------------------|
G|----------------8-10-10s12-10p8-10p8------------8-10-10s12-10s8-10s12-|
D|--------8-10-10----------------------10-8-10-10-----------------------|
A|----------------------------------------------------------------------|
E|----------------------------------------------------------------------|
    (C)			(C)
e|---------------------------------------------------------------------------|
B|---------------------------------------------------------------------------|
G|---------10s12-10-8--------------------------------------------------------|
D|-8-10----------------------------------------------------------------------|
A|---------------------------------------------------------------------------|
E|---------------------------------------------------------------------------|

VERSES: C chord!
You're wound up like a weapon
You've got an evil streak
They told me to stay away
But i was much too weak

CHROUS
C	     F	   A#		C
Ya you gotta Stop, Stop can't you hear me call
and singing gotta stop,stop it girl
Ya you gotta Stop, stop can't you see me fal
and singing stop,stop it girl

I hounded you forever
But you never saw
This love was so strong it shoulda
Been against the law


Ya you gotta Stop, Stop can't you hear me call
and singing gotta stop,stop it girl
Ya you gotta Stop, stop can't you see me fal
and singing stop,stop it girl

BRIDGE

You tear me all apart
and then act so warm
like being cooled by the rain
in the eye of the storm


Ya you gotta Stop, Stop can't you hear me call
and singing gotta stop,stop it girl
Ya you gotta Stop, stop can't you see me fal
and singing stop,stop it girl


NOTE: Lyrics arent out yet so this is just a guess...

************************************

| /   slide up
| \   slide down
| h   hammer-on
| p   pull-off
| ~   vibrato
| +   harmonic
| x   Mute note
| b   Bend
| pb  Pre-bend
| br  Bend release
| pbr Pre-bend release
| brb Bend release bend

************************************
Tap to rate this tab
 
# A B C D E F G H I J K L M N O P Q R S T U V W X Y Z