Song name
# A B C D E F G H I J K L M N O P Q R S T U V W X Y Z

The Black Keys - Gold On The Ceiling tab

This is Gold on the Ceiling by The Black Keys.  My favorite song off of the new album, El Camino.
I'm pretty sure it's 100% correct, but if you feel otherwise let me know and I might 
makes changes to it.

Tabbed by: Kingbabyduck

Tuning: Standard

Intro Riff

e|------------------------------------------------------------------------------|
B|------------------------------------------------------------------------------|
G|------------------------------------------------------------------------------|
D|------12---------10------12--10------7--------5-----7--5-----3-------5-------3|
A|------------------------------------------------------------------------------|
E|--15------15/13------13----------10-----10/8-----8--------6-----6/8-----8/6---|

Riff after Intro

e|--------------------|
B|--------------------|
G|--------------------|
D|--------------------|
A|--------------------|
E|--3--3--3--3--8--6--|

Keyboard Riff

e|-----------------------------------------------------------------------------|
B|-----------------------------------------------------------------------------|
G|-----------------------------------------------------------------------------|
D|---------------------------------------------------------------------8b------|
A|--10------10--8------8------10--8-----------------8------10------10------10--|
E|-----------------10----------------10--8------10-----10----------------------|

Verse

e|------------------------------------------------|
B|------------------------------------------------|
G|------------------------------------------------|
D|------------------------------------------------|
A|----------------------3 x6------1 x2------------|
E|--3 x8------1 x8--------------------------3 x8--|

Pre-Chorus

e|--------------------------------------|
A|--------------------------------------|
D|--------------------------------------|
G|--------------------------------------|
A|----------------------1 x8------------|
E|--3 x8------1 x8----------------3 x8--|

Chorus

e|-------------------------------------------------------------|
B|-------------------------------------------------------------|
G|-------------------------------------------------------------|
D|-------------------------------------------------------------|
A|------------3--3---------------------------------3--3--------|
E|--1--1----------------3--3--1--3------1--1-------------1--3--|

Verse Riff

e|-----------------------------------------------------------------------------------------|
B|-----------------------------------------------------------------------------------------|
G|--17b19r17p15------15------15--17b19r17p15-----------------15--17b19r17--15------15--15--|
D|---------------17------17-------------------17--17--15h17--------------------17----------|
A|-----------------------------------------------------------------------------------------|
E|-----------------------------------------------------------------------------------------|

  -------------------------------------|
  -------------------------------------|
  -------------------------------------|
  --17--15--17--15---------------------|
  ------------------17/15--13--15--13--|
  -------------------------------------|



e|-----------------------------------------------------------------------------------------|
B|-----------------------------------------------------------------------------------------|
G|--17b19r17p15------15------15--17b19r17p15-----------------15--17b19r17--15------15--15--|
D|---------------17------17-------------------17--17--15h17--------------------17----------|
A|-----------------------------------------------------------------------------------------|
E|-----------------------------------------------------------------------------------------|

  --------------------------|
  --------------------------|
  --17--15------------------|
  ----------17--15--17--17--|
  --------------------------|
  --------------------------|


Order of tab in the song:

Intro Riff x1
Riff After Intro x4
Keyboard Riff and Verse x2
Verse x2
Pre-Chorus x1
Chorus x2
Keyboard Riff and Verse x2
Verse Riff x1
Verse x2
Pre-Chorus x1
Chorus x2
Keyboard Riff and Verse x2
Verse Riff x1
Chorus x2
Keyboard Riff and Verse x4
Riff After Intro x4


************************************

| /   slide up
| \   slide down
| h   hammer-on
| p   pull-off
| ~   vibrato
| +   harmonic
| x   Mute note
| b   Bend
| pb  Pre-bend
| br  Bend release
| pbr Pre-bend release
| brb Bend release bend

************************************
Tap to rate this tab
# A B C D E F G H I J K L M N O P Q R S T U V W X Y Z