Song name
# A B C D E F G H I J K L M N O P Q R S T U V W X Y Z

The Black List Club - Cinnamon And Vanilla tab

Highlighted       Show chord diagrams
I will just show the chords for the parts.  If someone wants to put them to the lyrics 
for it :-D .

Tuning: Tune all strings 1/2 step down but i will use the standard chord names.  Just
technically they are 1/2 step down.  Play it and let me know how it sounds!

Intro (x2):

E||---- X ---- X ---- X ---- X --|
B||---- 2 ---- X ---- 7 ---- 0 --|
G||---- 1 ---- 6 ---- 7 ---- 0 --|
D||---- 0 ---- 7 ---- 7 ---- 0 --|
A||---- 0 ---- 0 ---- X ---- 0 --|
E||---- X ---- 0 ---- 7 ---- 3 --|
       [D]    [A]   [Bm7]   [G add9]


Verse X1 (same thing twice with different versions of Bm7):

E||---- 2 ---- X ---- X ---- X --|
B||---- 3 ---- 0 ---- 2 ---- X --|
G||---- 2 ---- 0 ---- 1 ---- 6 --|
D||---- 4 ---- 0 ---- 0 ---- 7 --|
A||---- 2 ---- 0 ---- 0 ---- 7 --|
E||---- X ---- 3 ---- X ---- 5 --|
      [Bm7] [G add9] [D]    [A]


E||---- X ---- X ---- X ---- X --|
B||---- 7 ---- 0 ---- 2 ---- X --|
G||---- 7 ---- 0 ---- 1 ---- 6 --|
D||---- 7 ---- 0 ---- 0 ---- 7 --|
A||---- X ---- 0 ---- 0 ---- 7 --|
E||---- 7 ---- 3 ---- X ---- 5 --|
      [Bm7] [G add9] [D]    [A]


Pre-Chorus:

This part X2:
E||---- X ---- X ---- X ---- X ----|
B||---- X ---- X ---- X ---- X ----|
G||---- X ---- X ---- X ---- X ----|
D||---- 9 ---- 12 ----12 ----12 ---|
A||---- 7 ---- 9 ---- 10 ----9 ----|
E||---- 0 ---- 0 ---- 0 ---- 0 ----|

Then this last chord:

E||---- X ---|
B||---- 5 ---|
G||---- 6 ---|
D||---- 7 ---|
A||---- 7 ---|
E||---- 5 ---|
       [A]


Chorus  (just listen for the Bm7-->D part):

E||---- X ---- X ---- X -X-X---- X --|
B||---- X ---- X ---- 7 -7-7---- 0 --|
G||---- 7----  6 ---- 7 -7-7---- 0 --|
D||---- 7 ---- 7 ---- 7 -7-7---- 0 --|
A||---- 5 ---- 7 ---- X -0-5---- 0 --|
E||---- X ---- 5 ---- 7 -0-X---- 3 --|
       [D]    [A]    [Bm7-->D] [G add9]


E||---- X ---- X ---- X --X------0---- X ---0-|
B||---- 2 ---- 2 ---- 3 --3------0---- 0 ---5-|
G||---- 1 ---- 2 ---- 2 --2------0---- 0 ---6-|
D||---- 0 ---- 0 ---- 4 --4------2---- 0 ---7-|
A||---- 0 ---- 0 ---- 2 --0------2---- 0 ---7-|
E||---- X ---- 2 ---- X --X------0---- 3 ---5-|
       [D]  [Asus4][Bm7->Aadd9] {Em][Gadd9] [A]
Tap to rate this tab
# A B C D E F G H I J K L M N O P Q R S T U V W X Y Z