Guitaretab - guitar tabs
Song name
# A B C D E F G H I J K L M N O P Q R S T U V W X Y Z

The Black List Club - Stubborn tab

-----------------------------------------------------------------------------
             Black List Club - STUBBORN (Try life without me)
-----------------------------------------------------------------------------
Tabbed by: Avrill
e-mail: avrill_xx@yahoo.com

Tuning: 1/2 step down


INTRO
e|--------5--------5---------5--------5--|
B|------5--------5---------5--------5----|
G|----5--------5---------5--------5------|
D|--3--------2---------7-----------------|
A|------------------------------3--------|
E|---------------------------------------|

e|--------5--------5-----------5--|
B|------5--------5---------5------|
G|----5--------5---------5---5----|
D|--3--------2---------7----------|
A|--------------------------------|
E|--------------------------------|


VERSE
Things used to be great, now we canít relate
e|--------5--------5---------5--------5--|
B|------5--------5---------5--------5----|
G|----5--------5---------5--------5------|
D|--3--------2---------7-----------------|
A|------------------------------3--------|
E|---------------------------------------|

And everyday is a struggle
e|--------5--------5-----------5-------|
B|------5--------5---------5-----5---5-|
G|----5--------5---------5---5-----5---|
D|--3--------2---------7---------------|
A|-------------------------------------|
E|-------------------------------------|


Something's not right, you just want to fight
e|--------5--------5---------5--------5--|
B|------5--------5---------5--------5----|
G|----5--------5---------5--------5------|
D|--3--------2---------7-----------------|
A|------------------------------3--------|
E|---------------------------------------|


Well go find someone else.
e|--------5--------5-----------5-------|
B|------5--------5---------5-----5---5-|
G|----5--------5---------5---5-----5---|
D|--3--------2---------7---------------|
A|-------------------------------------|
E|-------------------------------------|

'Cause youíre not my type anymore
e|-------------------------------------|
B|-------------------------------------|
G|-------------------------------------|
D|--3-3-3-3-3-3-3-3--5-5-5-5-5-5-5-5---|
A|--3-3-3-3-3-3-3-3--5-5-5-5-5-5-5-5---|
E|--1-1-1-1-1-1-1-1--3-3-3-3-3-3-3-3---|


CHORUS
I donít wanna play your games
e|--------------------------------------|
B|--------------------------------------|
G|--------------------5-5-5-5-----------|
D|--7-7-7-7--3-3-3-3--5-5-5-5--5-5-5-5--|
A|--7-7-7-7--3-3-3-3--3-3-3-3--5-5-5-5--|
E|--5-5-5-5--1-1-1-1-----------3-3-3-3--|

I donít care, if I lose you today
e|--------------------------------------|
B|--------------------------------------|
G|--------------------5-5-5-5-----------|
D|--7-7-7-7--3-3-3-3--5-5-5-5--5-5-5-5--|
A|--7-7-7-7--3-3-3-3--3-3-3-3--5-5-5-5--|
E|--5-5-5-5--1-1-1-1-----------3-3-3-3--|

Cause you canít be satisfied by anything
e|--------------------------------------|
B|--------------------------------------|
G|--------------------5-5-5-5-----------|
D|--7-7-7-7--3-3-3-3--5-5-5-5--5-5-5-5--|
A|--7-7-7-7--3-3-3-3--3-3-3-3--5-5-5-5--|
E|--5-5-5-5--1-1-1-1-----------3-3-3-3--|

So try life without me,
e|-------------------------------------|
B|-------------------------------------|
G|-------------------------------------|
D|--7-7-7-7--3-3-3-3--5-5-5-5-5-5-5-5--|
A|--7-7-7-7--3-3-3-3--5-5-5-5-5-5-5-5--|
E|--5-5-5-5--1-1-1-1--3-3-3-3-3-3-3-3--|

INTERLUDE
e|--------5--------5---------5--------5--|
B|------5--------5---------5--------5----|
G|----5--------5---------5--------5------|
D|--3--------2---------7-----------------|
A|------------------------------3--------|
E|---------------------------------------|

e|--------5--------5-----------5-------|
B|------5--------5---------5-----5---5-|
G|----5--------5---------5---5-----5---|
D|--3--------2---------7---------------|
A|-------------------------------------|
E|-------------------------------------|

VERSE
Nothing I do, ever pleases you
e|--------5--------5---------5--------5--|
B|------5--------5---------5--------5----|
G|----5--------5---------5--------5------|
D|--3--------2---------7-----------------|
A|------------------------------3--------|
E|---------------------------------------|

I wonder how youíd like that
e|--------5--------5-----------5-------|
B|------5--------5---------5-----5---5-|
G|----5--------5---------5---5-----5---|
D|--3--------2---------7---------------|
A|-------------------------------------|
E|-------------------------------------|

e|---------|
B|---------|
G|--5-5-5--|
D|--5-5-5--|
A|--3-3-3--|
E|---------|

What should I say, youíve made it this way
e|--------5--------5---------5--------5--|
B|------5--------5---------5--------5----|
G|----5--------5---------5--------5------|
D|--3--------2---------7-----------------|
A|------------------------------3--------|
E|---------------------------------------|
[ Tab from: http://www.guitaretab.com/t/the-black-list-club/181881.html ]
And Iím supposed to fix this
e|--------5--------5-----------5-------|
B|------5--------5---------5-----5---5-|
G|----5--------5---------5---5-----5---|
D|--3--------2---------7---------------|
A|-------------------------------------|
E|-------------------------------------|

I donít feel like it
e|-------------------------------------|
B|-------------------------------------|
G|-------------------------------------|
D|--3-3-3-3-3-3-3-3--5-5-5-5-5-5-5-5---|
A|--3-3-3-3-3-3-3-3--5-5-5-5-5-5-5-5---|
E|--1-1-1-1-1-1-1-1--3-3-3-3-3-3-3-3---|


CHORUS
I donít wanna play your games
e|--------------------------------------|
B|--------------------------------------|
G|--------------------5-5-5-5-----------|
D|--7-7-7-7--3-3-3-3--5-5-5-5--5-5-5-5--|
A|--7-7-7-7--3-3-3-3--3-3-3-3--5-5-5-5--|
E|--5-5-5-5--1-1-1-1-----------3-3-3-3--|

I donít care, if I lose you today
e|--------------------------------------|
B|--------------------------------------|
G|--------------------5-5-5-5-----------|
D|--7-7-7-7--3-3-3-3--5-5-5-5--5-5-5-5--|
A|--7-7-7-7--3-3-3-3--3-3-3-3--5-5-5-5--|
E|--5-5-5-5--1-1-1-1-----------3-3-3-3--|

Cause you canít be satisfied by anything
e|--------------------------------------|
B|--------------------------------------|
G|--------------------5-5-5-5-----------|
D|--7-7-7-7--3-3-3-3--5-5-5-5--5-5-5-5--|
A|--7-7-7-7--3-3-3-3--3-3-3-3--5-5-5-5--|
E|--5-5-5-5--1-1-1-1-----------3-3-3-3--|

So try life without me,
e|-------------------------------------|
B|-------------------------------------|
G|-------------------------------------|
D|--7-7-7-7--3-3-3-3--5-5-5-5-5-5-5-5--|
A|--7-7-7-7--3-3-3-3--5-5-5-5-5-5-5-5--|
E|--5-5-5-5--1-1-1-1--3-3-3-3-3-3-3-3--|
                    pm................


BRIDGE
Its over now, weíre finally through
e|--------------------------------------|
B|--------------------------------------|
G|--7-7-x-x--3-3-x-x------x-x--5-5-x-x--|
D|--7-7-x-x--3-3-x-x--3-3-x-x--5-5-x-x--|
A|--5-5-x-x--1-1-x-x--3-3-x-x--3-3-x-x--|
E|---------------x-x--1-1-x-x------x-x--|

It's all because of you
e|--------------------------------------|
B|--------------------------------------|
G|--7-7-x-x--3-3-x-x------x-x--5-5-x-x--|
D|--7-7-x-x--3-3-x-x--3-3-x-x--5-5-x-x--|
A|--5-5-x-x--1-1-x-x--3-3-x-x--3-3-x-x--|
E|---------------x-x--1-1-x-x------x-x--|

Donít know why I tried, you never
e|--------------------------------------|
B|--------------------------------------|
G|--7-7-7-7--3-3-3-3-----------5-5-5-5--|
D|--7-7-7-7--3-3-3-3--3-3-3-3--5-5-5-5--|
A|--5-5-5-5--1-1-1-1--3-3-3-3--3-3-3-3--|
E|--------------------1-1-1-1-----------|

cared... I donít think thatís fair!
e|---------------------------|
B|---------------------------|
G|---------------------------|
D|--5-5-5-5-5-5-5-5-5-5-5-5--|
A|--5-5-5-5-5-5-5-5-5-5-5-5--|
E|--3-3-3-3-3-3-3-3-3-3-3-3--|


CHORUS
I donít wanna play your games
e|--------------|
B|--------------|
G|--------5-----|
D|--7--3--5--5--|
A|--7--3--3--5--|
E|--5--1-----3--|

I donít care, if I lose you today
e|------------------|
B|------------------|
G|--------5---------|
D|--7--3--5--5-5-5--|
A|--7--3--3--5-5-5--|
E|--5--1-----3-3-3--|

Cause you canít be satisfied by anything
e|--------------------------------------|
B|--------------------------------------|
G|--------------------5-5-5-5-----------|
D|--7-7-7-7--3-3-3-3--5-5-5-5--5-5-5-5--|
A|--7-7-7-7--3-3-3-3--3-3-3-3--5-5-5-5--|
E|--5-5-5-5--1-1-1-1-----------3-3-3-3--|

So try life without me
e|--------------------------------------|
B|--------------------------------------|
G|--------------------5-5-5-5-----------|
D|--7-7-7-7--3-3-3-3--5-5-5-5--5-5-5-5--|
A|--7-7-7-7--3-3-3-3--3-3-3-3--5-5-5-5--|
E|--5-5-5-5--1-1-1-1-----------3-3-3-3--|

I do not wanna play your games
e|--------------------------------------|
B|--------------------------------------|
G|--------------------5-5-5-5-----------|
D|--7-7-7-7--3-3-3-3--5-5-5-5--5-5-5-5--|
A|--7-7-7-7--3-3-3-3--3-3-3-3--5-5-5-5--|
E|--5-5-5-5--1-1-1-1-----------3-3-3-3--|

I donít care, if I lose you today
e|--------------------------------------|
B|--------------------------------------|
G|--------------------5-5-5-5-----------|
D|--7-7-7-7--3-3-3-3--5-5-5-5--5-5-5-5--|
A|--7-7-7-7--3-3-3-3--3-3-3-3--5-5-5-5--|
E|--5-5-5-5--1-1-1-1-----------3-3-3-3--|

Cause you canít be satisfied by anything
e|--------------------------------------|
B|--------------------------------------|
G|--------------------5-5-5-5-----------|
D|--7-7-7-7--3-3-3-3--5-5-5-5--5-5-5-5--|
A|--7-7-7-7--3-3-3-3--3-3-3-3--5-5-5-5--|
E|--5-5-5-5--1-1-1-1-----------3-3-3-3--|

So try life without me
e|-------------------------------------|
B|-------------------------------------|
G|-------------------------------------|
D|--7-7-7-7--3-3-3-3--5-5-5-5-5-5-5-5--|
A|--7-7-7-7--3-3-3-3--5-5-5-5-5-5-5-5--|
E|--5-5-5-5--1-1-1-1--3-3-3-3-3-3-3-3--|

So try life without me
e|-------------------------------------|
B|-------------------------------------|
G|-------------------------------------|
D|--7-7-7-7--3-3-3-3--5-5-5-5-5-5-5-5--|
A|--7-7-7-7--3-3-3-3--5-5-5-5-5-5-5-5--|
E|--5-5-5-5--1-1-1-1--3-3-3-3-3-3-3-3--|
                    pm................
Just try life without me
e|--0--1--3--|
B|--1--1--0--|
G|--2--2--0--|
D|--2--3--0--|
A|--0--3--2--|
E|-----1--3--|
Related for Stubborn tab