Song name
# A B C D E F G H I J K L M N O P Q R S T U V W X Y Z

The Black Mages - Matoyas Cave tab

Help us improve GuitareTab! Take a short survey!
 -------------------------------------------------------------------------------
		     Matoya's Cave Main Riff - The Black Mages
-------------------------------------------------------------------------------
Tabbed by:ROY
Email:killachinchilla619@hotmail.com

Tuning:Standard

This is the main Riff
Tempo's About 110, the original from the game is 10 notes higher, I think, and a lot faster
Played acoustic at start then repeated with distortion and some timing changes, 
and some slide out downwards on the longer notes, you'll work it out

e|---------------------------------------------------------------------------|
B|---------------------------------------------------------------------------|
G|------11---12----11-9----9-------------11-14----16--14-12-11--12-11--------|
D|-9-12----9------------12---11-12----12-------12---------------------9------|
A|---------------------------------------------------------------------------|
E|---------------------------------------------------------------------------|

e|---------------------------------------------------------------------------|
B|---------------------------------------------------------------------------|
G|-11-12-14-----------------------12-14-16-----12--11-12-11------------------|
D|-----------11-14--12-11-12----------------12--------------9----------------|
A|---------------------------14----------------------------------------------|
E|---------------------------------------------------------------------------|

e|---------------------------------------------------------------------------|
B|-----------------14-17-15-14-15--------------------------------------------|
G|-14-16-18--14-16---------------16---14-12-11-------------------------------|
D|---------------------------------------------14-----12-14-12--11---12------|
A|--------------------------------------------------15------------/12--------|
E|---------------------------------------------------------------------------|

e|---------------------------------------------------------------------------|
B|---------------------------------------------------------------------------|
G|------------------11-9----9-11----14-12-11-12-14---------------------------|
D|-12-11---11-12---------12--------------------------------------------------|
A|-------9-------------------------------------------------------------------|
E|---------------------------------------------------------------------------|

Repeat with distortion and slide out down and let ring
Note the timing changes and a bit of staccato

| /  slide up
| \  slide down
| h  hammer-on
| p  pull-off
| ~  vibrato
| +  harmonic
| x  Mute note
===============================================================================
Related for Matoyas Cave tab